Song name
# A B C D E F G H I J K L M N O P Q R S T U V W X Y Z

Bon Jovi - Novocaine tab

Help us improve GuitareTab! Take a short survey!
Ok Here is the solo, now it isn't too hard as you can see when you look at it, so have fun!

p - Pull Off
h - Hammer On
v - Vibrato
b - bend

Standard Tuning - EADGBE

E----------------------------------------------------------------------------|
B------------b release-------------------------------------------------------|
G--------------------------------------------------------------------------6-|
D---7-7-7-7-7-9-9b(11)9p7v-6-7-6--------7-11-9v--11-7v--6h7p6v-6h7p6p4-------|
A--------------------------------7v-4-7--------------------------------4-7---|
E----------------------------------------------------------------------------|

E---------------------------------------------------------------------------|
B---------------------------------------------------------------------------|
G-7-6-4v-----6p4------------------------------------------------------------|
D----------------7v---------------------------------------------------------|
A---------------------------------------------------------------------------|
E---------------------------------------------------------------------------|
Related for Novocaine tab