Song name
# A B C D E F G H I J K L M N O P Q R S T U V W X Y Z

Bon Jovi - In And Out Of Love tab

Note: I did not cover the chords on
guitar 1 through the solo

Tuning: standard
  INTRO
  Gtr. 1 (dist.)
  0:13                                                                                   ~~~~
e|-------------------------------------------------------------------------------------------|
B|-------------------------------------------------------------------------------------------|
G|-2---(2)-----5-----2------5---------5/7----4-----2------5-----2------5------5--7----4------|
D|-2---(2)-----5-----2----------7--3------------5--2------5-----2----------7-------------5---|
A|-0---(0)--0--0--0--0---0--3---------3/5----2-----0---0--0--0--0---0--3------3--5----2------|
E|------------------------------5--1------------3--------------------------5-------------3---|

  VERSE
  P.M.---|          P.M.-------------------|  P.M.            P.M.
e||-------------------------------------------------------------------------------|
B||-----------------------------------------------8---(8)\------------------------|
G||-------2---------------------------------7-----7---(7)\--7------2--------------|
D||-------2---------------------------------7-----9---(9)\--4------2--------------|
A||-0--0--0---------0--0--0--0--0--0--0--0--0--0--0---------0---0--0--------------|
E||-------------------------------------------------------------------------------|


  P.M.---|          P.M.-------------------|  P.M.            P.M.
e||-------------------------------------------------------------------------------|
B||-----------------------------------------------8---(8)\------------------------|
G||-------2---------------------------------7-----7---(7)\--7------2--------------|
D||-------2---------------------------------7-----9---(9)\--4------2--------------|
A||-0--0--0---------0--0--0--0--0--0--0--0--0--0--0---------0---0--0--------------|
E||-------------------------------------------------------------------------------|

  PRE-CHORUS
                 v    v    v    v     P.M.--|
e|--------------------------------------------------3----3---3--2-----------------|
B|-------3------(3)--(3)--(3)--(3)-----------3------3----3---3--3------3----------|
G|-------2------(2)--(2)--(2)--(2)-----------2------2----2---2--2-----------------|
D|-------0------(0)--(0)--(0)--(0)-----0--0--0------0----0---0--0-----------------|
A|--------------------------------------------------------------------------------|
E|----3--3------(3)--(3)--(3)--(3)------------------------------------------------|


  P.M.--|  P.M.  P.M.  P.M.--|  P.M.--|    P.M.                            ~~~~
e|--------------------------------------------------------------------------------|
B|----------------------------------------------3--3---3--3---3---3-----3---------|
G|-------2-----2-----2--------2--------2--2-----2--2---2--2---2---2-----2-------2-|
D|-------0-----0-----0--------0--------0--0--0--0--0---0--0---0---0-----0-------2-|
A|-------------------------------------------------------------------3-----3----2-|
E|-3--3--3--3--3--3--3--3--3--3--3--3--3--3---------------------------------------|

  CHORUS

e|------------------------------------------------------------------------------------------|
B|------------------------------------------------------------------------------------------|
G|-(2)-----5-----2-----5----------5/7----4-----2-------5-----2-------5------5--7----4-----2-|
D|-(2)-----5-----2----------7--3------------5--2-------5-----2-----------7-------------5--2-|
A|-(0)--0--0--0--0--0--3----------3/5----2-----0----0--0--0--0----0--3------3--5----2-----0-|
E|--------------------------5--1------------3----------------------------5-------------3----|

                                                                         v
                                                          N.H.--------------------|
e|-----------------------------------------------------------5------12--(12)----------------|
B|--------------------------------------------------------5-----12--------------------------|
G|-(2)-----5-----2-----5----------5/7----4------------------------------------------------2-|
D|-(2)-----5-----2----------7--3------------5--2----2--2----------------------------------2-|
A|-(0)--0--0--0--0--0--3----------3/5----2-----2----2--2----------------------------------0-|
E|--------------------------5--1------------3--0----0--0------------------------------------|



e|---------------------------------------------------------------------------------|
B|---------------------------------------------------------------------------------|
G|-(2)-----5-----2------5---------5/7----4-----2------5-----2-----5-----5--7--4----|
D|-(2)-----5-----2----------7--3------------5--2------5-----2--------7-----------5-|
A|-(0)--0--0--0--0---0--3---------3/5----2-----0---0--0--0--0--0--3-----3--5--2----|
E|--------------------------5--1------------3------------------------5-----------3-|


  P.M.--|         P.M.--------------------| P.M.            P.M.
e|---------------------------------------------------------------------------------|
B|-----------------------------------------------8---(8)\--------------------------|
G|-------2---------------------------------7-----7---(7)\--7-----2-----------------|
D|-------2---------------------------------7-----9---(9)\--4-----2-----------------|
A|-0--0--0---------0--0--0--0--0--0--0--0--0--0--0---------0--0--0-----------------|
E|---------------------------------------------------------------------------------|


  P.M.---|          P.M.-------------------|  P.M.            P.M.
e||-------------------------------------------------------------------------------|
B||-----------------------------------------------8---(8)\------------------------|
G||-------2---------------------------------7-----7---(7)\--7------2--------------|
D||-------2---------------------------------7-----9---(9)\--4------2--------------|
A||-0--0--0---------0--0--0--0--0--0--0--0--0--0--0---------0---0--0--------------|
E||-------------------------------------------------------------------------------|

  PRE-CHORUS
                 v    v    v    v     P.M.--|
e|--------------------------------------------------3----3---3--2-----------------|
B|-------3------(3)--(3)--(3)--(3)-----------3------3----3---3--3------3----------|
G|-------2------(2)--(2)--(2)--(2)-----------2------2----2---2--2-----------------|
D|-------0------(0)--(0)--(0)--(0)-----0--0--0------0----0---0--0-----------------|
A|--------------------------------------------------------------------------------|
E|----3--3------(3)--(3)--(3)--(3)------------------------------------------------|


  P.M.--|  P.M.  P.M.  P.M.--|  P.M.--|    P.M.                            ~~~~
e|--------------------------------------------------------------------------------|
B|----------------------------------------------3--3---3--3---3---3-----3---------|
G|-------2-----2-----2--------2--------2--2-----2--2---2--2---2---2-----2-------2-|
D|-------0-----0-----0--------0--------0--0--0--0--0---0--0---0---0-----0-------2-|
A|-------------------------------------------------------------------3-----3----2-|
E|-3--3--3--3--3--3--3--3--3--3--3--3--3--3---------------------------------------|

  CHORUS

e|------------------------------------------------------------------------------------------|
B|------------------------------------------------------------------------------------------|
G|-(2)-----5-----2-----5----------5/7----4-----2-------5-----2-------5------5--7----4-----2-|
D|-(2)-----5-----2----------7--3------------5--2-------5-----2-----------7-------------5--2-|
A|-(0)--0--0--0--0--0--3----------3/5----2-----0----0--0--0--0----0--3------3--5----2-----0-|
E|--------------------------5--1------------3----------------------------5-------------3----|



e|---------------------------------------------------------------------------|
B|---------------------------------------------------------------------------|
G|-(2)-----5-----2-----5--(5)--------5/7----4-------2------------------------|
D|-(2)-----5-----2-------------7--3------------5----2------------------------|
A|-(0)--0--0--0--0--0--3--(3)--------3/5----2-------0------------------------|
E|-----------------------------5--1------------3-----------------------------|



e|---------------------------------------------------------------------------|
B|---------------------------------------------------------------------------|
G|----5-----2-------5-------5--7----4-----2--(2)-----5-----2------5----------|
D|----5-----2------------7-------------5--2--(2)-----5-----2-----------------|
A|-0--0--0--0----0--3-------3--5----2-----0--(0)--0--0--0--0---0--3----------|
E|-----------------------5-------------3-------------------------------------|



e|---------------------------------------------------------------------------|
B|---------------------------------------------------------------------------|
G|-------5/7----4-----2------5-----2-------5-------5--7----4-----2-----------|
D|-7--3------------5--2------5-----2------------7-------------5--2-----------|
A|-------3/5----2-----0----0-0--0--0----0--3-------3--5----2-----0-----------|
E|-5--1------------3----------------------------5-------------3--------------|



e|---------------------------------------------------------------------------|
B|---------------------------------------------------------------------------|
G|-(2)-----5-----2-----5--------5/7----4-----2-------5-----5--7----4-----2---|
D|-(2)-----5-----2--------7--3------------5--2----------7-------------5--2---|
A|-(0)--0--0--0--0--0--3--------3/5----2-----0----0--3-----3--5----2-----0---|
E|------------------------5--1------------3-------------5-------------3------|

                             v
             N.H.----------------------|
e|---------------5------12--(12)---------------------------------------------|
B|------------5-----12-------------------------------------------------------|
G|----------------------------------------------2----------------------------|
D|-2----2--2------------------------------------2----------------------------|
A|-2----2--2------------------------------------0----------------------------|
E|-0----0--0-----------------------------------------------------------------|

                 *vib top 2 notes only
      P.M.   P.M. ~~~~   P.M.   P.M.  ~~~~~              P.M.  P.M.        P.M.    P.M. ~~~~~
e||-----------------------------------------3----2----------------------------------------------|
B||-----------------------------------------3----3----------------------------------------------|
G||-(2)-----5-----2----2-------5-----7\-----0----2-----2-------5-----2----2-------5-----7-------|
D||-(2)-----5-----2----2-------5-----7\-----0----0-----2-------5-----2----2-------5-----7-------|
A||-(0)--0-----0--0----0----0-----0-----------------0--0----0-----0--0----0----0-----0----------|
E||-----------------------------------------3--------------------------------------------------3|

                                   (Guitar 2 dist.)
                                   GUITAR SOLO                              P.M.~~~|
e|-3----2------------------------||------------------------------------------------|
B|-3----3------------------------||-(8)--8--8--8--8--7----8----8--8--8--8--7-------|
G|-0----2-------2--------------2-||-(7)--7--7--7--7--7----7----7--7--7--7--7-------|
D|-0----0-------2--------------2-||-------------------------------------------0--0-|
A|-----------0--0--(0)\--------0-||------------------------------------------------|
E|-3-----------------------------||------------------------------------------------|


                         v~~~~~~~~~~~~~~v
e|-10p9--------7--9------------------------------------------------------------|
B|---------10--------10-----------------------------8--(8)--8--8--8--8--7----8-|
G|-----------------------9--------------(9)\--------7--(7)--7--7--7--7--7----7-|
D|--------------------------------------------0--0-----------------------------|
A|-----------------------------------------------------------------------------|
E|-----------------------------------------------------------------------------|


                v   P.H.                                 v     T.P.-----------|
e|--------------------------------------------------5--(5)\-------------------|
B|-8--8--8--8--7\-----------------------------------5--(5)\----8/10--8/10-----|
G|-7--7--7--7--7\--------------------------------7----------------------------|
D|---------------------------5h7------------5h7-------------------------------|
A|-------------------5--5h7-------5h7--5h7------------------------------------|
E|----------------------------------------------------------------------------|


   T.P.--------------|   v~~~~~~   1               1/2
e|------------------------------------17-----------------------17---------------------------------|
B|-10\8\7\5/8\7\5\3\--2/10-------20b--------20--17-------17--20------20--17------17--20h22p20-----|
G|--------------------------------------------------19b----------------------19----------------21-|
D|------------------------------------------------------------------------------------------------|
A|------------------------------------------------------------------------------------------------|
E|------------------------------------------------------------------------------------------------|


     1/2----|     ~~~~~~~~~~ v dive steady  return   1/2              1/2                 1/2
e|-21b--pb21----21----------------------------------12b-(12)p8-------14b-(14)--10|
B|--------------------------------------------------------------8----------------|
G|-------------------------------------------------------------------------------|
D|---------------------------x---------------x-----------------------------------|
A|---------------------------x---------------x-----------------------------------|
E|-------------------------------------------------------------------------------|

-------16b-(16)--12-|
-10-----------------|
--------------------|
--------------------|
--------------------|
--------------------|

                       BRIDGE  gtr 2 tacet
     v                 P.M.     P.M.--|                              P.M.--|
e|------------------||---------------------------------------------------------|
B|-12\--------------||--------9-------------------------------7----8-----------|
G|------------------||-----7--7--------7----2-----------------7----7-----------|
D|------------------||-----7--9--------4----2-----------------7----9-----------|
A|------------------||--0--------0--0-------0-----------x--x----------0--0-----|
E|------------------||---------------------------------------------------------|


    v----------|     N.H.   P.M.--|                     P.M.   P.M.--| v-----------|
e|------------------------------------------------------------------------------------|
B|--------------------7---8----------------------------------8------------------------|
G|-7\--5-(5)\---------7---7--------7----2--------------7-----7--------7\--5-(5)\----2-|
D|-7\--5-(5)\---------7---9--------4----2--------------7-----9--------7\--5-(5)\----2-|
A|--------------x--7---------0--0--0----0--------x--x-----0-----0--0----------------0-|
E|------------------------------------------------------------------------------------|

  BREAKDOWN

e|----------------------------------------------------------------------------------------|
B|----------------------------------------------------------------------------------------|
G|-(2)-----5-----2------5----------5/7----4-----2-----5-----2-------5-----5--7----4-----2-|
D|-(2)-----5-----2-----------7--3------------5--2-----5-----2----------7-------------5--2-|
A|-(0)--0--0--0--0---0--3----------3/5----2-----0--0--0--0--0----0--3-----3--5----2-----0-|
E|---------------------------5--1------------3-------------------------5-------------3----|



e|----------------------------------------------------------------------------------------|
B|----------------------------------------------------------------------------------------|
G|-(2)-----5-----2------5----------5/7----4-----2-----5-----2-------5-----5--7----4-----2-|
D|-(2)-----5-----2-----------7--3------------5--2-----5-----2----------7-------------5--2-|
A|-(0)--0--0--0--0---0--3----------3/5----2-----0--0--0--0--0----0--3-----3--5----2-----0-|
E|---------------------------5--1------------3-------------------------5-------------3----|

  CHORUS

e|------------------------------------------------------------------------------------------|
B|------------------------------------------------------------------------------------------|
G|-(2)-----5-----2-----5----------5/7----4-----2-------5-----2-------5------5--7----4-----2-|
D|-(2)-----5-----2----------7--3------------5--2-------5-----2-----------7-------------5--2-|
A|-(0)--0--0--0--0--0--3----------3/5----2-----0----0--0--0--0----0--3------3--5----2-----0-|
E|--------------------------5--1------------3----------------------------5-------------3----|



e|------------------------------------------------------------------------------------------|
B|------------------------------------------------------------------------------------------|
G|-(2)-----5-----2-----5--(5)--------5/7----4-----2-------5-----2-----5-----5--7----4-----2-|
D|-(2)-----5-----2-------------7--3------------5--2-------5-----2--------7-------------5--2-|
A|-(0)--0--0--0--0--0--3--(3)--------3/5----2-----0----0--0--0--0--0--3-----3--5----2-----0-|
E|-----------------------------5--1------------3-------------------------5-------------3----|



e|----------------------------------------------------------------------------------------|
B|----------------------------------------------------------------------------------------|
G|-(2)-----5-----2------5----------5/7----4-----2-----5-----2-------5-----5--7----4-----2-|
D|-(2)-----5-----2-----------7--3------------5--2-----5-----2----------7-------------5--2-|
A|-(0)--0--0--0--0---0--3----------3/5----2-----0--0--0--0--0----0--3-----3--5----2-----0-|
E|---------------------------5--1------------3-------------------------5-------------3----|



e|---------------------------------------------------------------------------|
B|---------------------------------------------------------------------------|
G|-(2)-----5-----2-----5----------5/7----4-----2--(5)--------5/7----4-----2--|
D|-(2)-----5-----2----------7--3------------5--2-------7--3------------5--2--|
A|-(0)--0--0--0--0--0--3----------3/5----2-----0--(3)--------3/5----2-----0--|
E|--------------------------5--1------------3----------5--1------------3-----|



e|-------------------------------------------------------------------------------------|
B|-------------------------------------------------------------------------------------|
G|----5-----2-----5-----5--7----4-----2--(2)-----5-----2-----5----------5/7----4-----2-|
D|----5-----2--------7-------------5--2--(2)-----5-----2----------7--3------------5--2-|
A|-0--0--0--0--0--3-----3--5----2-----0--(0)--0--0--0--0--0--3----------3/5----2-----0-|
E|-------------------5-------------3------------------------------5--1------------3----|



e|--------------------------------------|
B|--------------------------------------|
G|----5-----2-----5-----5--7----4-----2-|
D|----5-----2--------7-------------5--2-|
A|-0--0--0--0--0--3-----3--5----2-----0-|
E|-------------------5-------------3----|



| T.P.  tremolo picking
| (#)   ghost note
| P.M.  pick hand muting
| N.H.  natural harmonic
| P.H.  pinch harmonic
| v     vibrato bar
| /     slide up
| \     slide down
| h     hammer-on
| p     pull-off
| ~     vibrato
| x     Mute note
Tap to rate this tab
# A B C D E F G H I J K L M N O P Q R S T U V W X Y Z