Song name
# A B C D E F G H I J K L M N O P Q R S T U V W X Y Z

Bon Jovi - You Want To Make A Memory tab

Help us improve GuitareTab! Take a short survey!
Hey.... This is the proper tab i watched richie and jon do it on the lost high way dvd ,
is pretty much exact like richies on the dvd sounds excellent! Enjoy

Intro.

Do this Palm Muted.
|-----------------------------------------------------------|
|-----------------------------------------------------------|
|-----------------------------------------------------------|
|-----------------------------------------------------------|
|-3-3-3-3-3-2-2-2-2-2-2-------------------------------------|
|-----------------------0-0-0-0-0-0-1-1-1-1-1-1-------------|

Now if you notice you can do this in chords but you only strum the certain strings... to
the same sound they do looks a bit confusing but below the last chord is an F and one
is an E and the rest are power chords one of them is labeled #1 and the other is labeled 
exactly how richie does it. but only strum the strings above palm muted but do it in a
formation like so below.

Powerchord #1  P Chord #2     E              F
|----------------------------------------1-------------------|
|----------------------------------------1-------------------|
|---------------------------1-1-1-1-1-1--x-1-1-1-1-1-1-------|
|-5-5-5-5-5-5--5-5-5-5-5-5--2-2-2-2-2-2--x-2-2-2-2-2-2-------|
|-3-3-3-3-3-3--2-2-2-2-2-2--2-2-2-2-2-2--x-2-2-2-2-2-2-------|
|----------------------------------------1-------------------|

Chorus

The chords are G,Am, Em , F

Like so....

 P chord #1       G         Am            F
|------------------------------------------------------------|
|------------------------------------------------------------|
|------------------------------------------------------------|
|------------------------2-2-2-2-2---------------------------|
|--3-3-3-3-3-------------------------------------------------|
|------------3-3-3-3-3-3--------------1-1-1-1-1-1------------|

 P chord #1       Em                  F          Strum Soft C chord
|------------------------------------------------------------|
|------------------------------------------------------------|
|------------------------------------------------------------|
|------------------------------------------------------------|
|-3-3-3-3-3---2-2-2-2-2-2-2-2--------------------------------|
|-------------2-2-2-2-2-2-2-2-----1-1-1-1-1-1----------------|
 And as you get through song start strum the chord not just an individual strings.. if
listen to it you'll know what i mean. but its a soft song remember!

Ok so i've mentioned what the chords are etc. this is the song in lyrics with the chord above

Power Chord #1
Hello Again Its you and me

Power Chord #2
Kinda always like it used to be

E Chord
Sipping wine killin' time

F chord
Trying to solve lifes mysteries

Power Chord #1
Hows ya life its been a while

Power Chord #2
God its good to see you smile

E chord
I see you reaching for your keys

F chord
Looking for a reason not to leave

P chord #1              G Chord
If you don't know   If you should stay

Am Chord          F Chord
If you don't say whats on your mind

       P chord #1
Baby Just Breathe

           Em                     F        Soft strum of F or C
Theres no where else tonight we should be

(Start to palm mute the chords now, instead of just strings)


Power Chord #1
I dug up this old photograph

Power Chord #2
Look at all that hair we had

E chord
its bitter sweet to hear you laugh

F chord
Your phone is ringing i dont wanna ask

P chord #1      G chord
If you go ,now, ill understand

        Am        F
if you stay, Hey, i got  plan

             P chord #1       G chord
You wanna make a memory

                   Am               F chord
You wanna steal a piece of time?

                P chord#1      G chord
You can sing the melody to me

                 Am (start to not palm mute)
And i could write a couple lines

F chord ( kick in real heavy distortion )
You wanna make a memory!!
                           (P.H) (P.H)
|-----------------------------------------------------|
|---------------------567b--567b--567b--5V------------|
|-------------------5---------------------------------|
|------------------5----------------------------------|
|--3-3-3-5-5-7-5-5V-----------------------------------|
|--------------(P.H)----------------------------------|

u just repeat the above for a little while till john holds a note when he sings you want
make a memoryyyyyy.

Then it changes to.

|-----------------------------------------------------------|
|-----------------------------------------------------------|
|-------------------------------------------x-x-------------|
|-5-5-5-5-5-5-7-7-9-9-7v--5--4--5-----------x-x-------------|
|-3-3-3-3-3-3-5-5-7-7-5v--3--2--3--5-5v-----x-x-------------|
|----------------------------------3-7v---------------------|

Repeat till finish.

any questions

email me at jesse.denton@cbhs.sa.edu.au
Related for You Want To Make A Memory tab