Guitaretab - guitar tabs
Song name
# A B C D E F G H I J K L M N O P Q R S T U V W X Y Z

Bon Jovi - Social Disease tab

I haven't entered all the song here. But this is the basic riff for the intro and it is 
regularly throughout the song.
[ Tab from: ]
e -----------|-------------|-----------------|---------------|-------------|
A -----------|-------------|-----------------|---------------|-------------|
D -----------|-------------|-----------------|---------------|-------------|
G -----------|---------2---|---------------2-|------------2--|--2--------2-|
B -----------|-------------|--7-5-4-2--------|--7-5-4-2------|----5-4-2----|
E -0---------|-(0)---------|-----------------|----------3----|-------------|

e ------------------|--------------|
A ------------------|--------------|
D ------------------|--------------|
G -2-------------6--|--6--4--2-----|
B ---5-4-2-------7--|--7--5--4--2--|
E ---------3-0------|--------------|
Related for Social Disease tab