Guitaretab - guitar tabs
Song name
# A B C D E F G H I J K L M N O P Q R S T U V W X Y Z

Bon Jovi - Only Lonely tab

Song: Only Lonely 
Album: 7800 Fahrenheit
Arist: Bon Jovi
Songwriters: Jon Bon Jovi & David Bryan
Tuning: Standard
Tabber: Jeppe

Intro
e|-------------------------------------------------------------------------|
B|-------------------------------------------------------------------------|
G|-------------------------------------------------------------------------|
D|-------------6-------6---------------------------------------------------|
A|-15-15-15----6-----------------------------------------------------------|
E|-------------4--4-4------------------------------------------------------|

|C   |C   |G#  Bb| x 2

Verse 1
|C   |C   |C   |C   |G#  |G#  |Bb  |Bb  |
[ Tab from: http://www.guitaretab.com/b/bon-jovi/91995.html ]
Pre Chours 
e|-------------------------------------------------------------------------|
B|-------------------------------------------------------------------------|
G|-------------------------------------------------------------------------|
D|--3--3----5---5---3--3--3--3---5---6-----------6--6----6-6----6---8--8---|
A|--3--3----5---5---3--3--3--3---5---6--------------6------6--------8--8---|
E|-----------------------------------4--4-4-4-4-4---4-4-4--4-4-4----6--6---|

Chours
C  |C  |G# Bb |C  |C  |G# Bb |C  |C  |G# Bb |G#  |

Verse 2
C  |C  |G # |G # |C  |C  |G # |G # |C  |C   |G # |G # |C   |C   |Eb Bb|

Pre Chours 
Chours 
Solo (Play Verse 2 on Solo)
Pre Chours
Chours

Questions, email jeppe_killen@homtail.com



Related for Only Lonely tab
Advertisement will be closed in 10 seconds