Song name
# A B C D E F G H I J K L M N O P Q R S T U V W X Y Z

Bonaparte - Anti Anti tab

-------------------
---->Anti Anti<----
---->Bonaparte<----
-------------------

Tunning: Standard (EADGBe)

I think the tab is not 100% but it hears really like the song.


Intro:
e|--------------|
B|--------------|
G|--3-2-0h2-----|
D|----------2-2-|
A|------------2-|
E|------------0-|

Verse:
e|-----------------------------------------------|
B|-----------------------------------------------|
G|-----------------------------------3-2-0h2-----|
D|--2----------2----------2------------------2-2-|
A|--2----------2----------2--------------------2-|
E|--0----------0----------0--------------------0-|

Play this the whole verse.

Chorus:
e|--x--0-0--x--3-3--x--5-5--x-x-x-x-|
B|--x--0-0--x--3-3--x--5-5--5-5-5-5-|
G|--x--0-0--x--4-4--x--6-6--5-5-5-5-|
D|--2--2-2--5--5-5--7--7-7--5-5-5-5-|
A|--2--2-2--5--5-5--7--7-7--3-3-3-3-|
E|--0--0-0--3--3-3--5--5-5----------|

Verse:
e|-----------------------------------------------|
B|-----------------------------------------------|
G|-----------------------------------3-2-0h2-----|
D|--2----------2----------2------------------2-2-|
A|--2----------2----------2--------------------2-|
E|--0----------0----------0--------------------0-|

Chorus:
e|--x--0-0--x--3-3--x--5-5--x-x-x-x-|
B|--x--0-0--x--3-3--x--5-5--5-5-5-5-|
G|--x--0-0--x--4-4--x--6-6--5-5-5-5-|
D|--2--2-2--5--5-5--7--7-7--5-5-5-5-|
A|--2--2-2--5--5-5--7--7-7--3-3-3-3-|
E|--0--0-0--3--3-3--5--5-5----------|

Intermediate:
e|------------------------------------------|
B|------------------------------------------|
G|------------------------------------------|
D|--------------------------------------5-5-|
A|--2--2-2-2-2--2--2-2-2-2--2--2-2-2-2--5-5-|
E|--0--0-0-0-0--0--0-0-0-0--0--0-0-0-0--3-3-| Play this 8 times

Bridge:
e|--x--0-0--x--3-3--x--5-5--x-x-x-x-|
B|--x--0-0--x--3-3--x--5-5--5-5-5-5-|
G|--x--0-0--x--4-4--x--6-6--5-5-5-5-|
D|--2--2-2--5--5-5--7--7-7--5-5-5-5-|
A|--2--2-2--5--5-5--7--7-7--3-3-3-3-|
E|--0--0-0--3--3-3--5--5-5----------| play this 2 times

Chorus:
e|--x--0-0--x--3-3--x--5-5--x-x-x-x-|
B|--x--0-0--x--3-3--x--5-5--5-5-5-5-|
G|--x--0-0--x--4-4--x--6-6--5-5-5-5-|
D|--2--2-2--5--5-5--7--7-7--5-5-5-5-|
A|--2--2-2--5--5-5--7--7-7--3-3-3-3-|
E|--0--0-0--3--3-3--5--5-5----------|

Bridge:
e|--x--0-0--x--3-3--x--5-5--x-x-x-x-|
B|--x--0-0--x--3-3--x--5-5--5-5-5-5-|
G|--x--0-0--x--4-4--x--6-6--5-5-5-5-|
D|--2--2-2--5--5-5--7--7-7--5-5-5-5-|
A|--2--2-2--5--5-5--7--7-7--3-3-3-3-|
E|--0--0-0--3--3-3--5--5-5----------| play this 2 times


I hope you enjoy it! =)
Tap to rate this tab
 
# A B C D E F G H I J K L M N O P Q R S T U V W X Y Z