Song name
# A B C D E F G H I J K L M N O P Q R S T U V W X Y Z

Bond - Explosive tab

Explosive by Bond

intro
e--------------------------------------------------------------------------|
b--------------------------------------------------------------------------|
g----0-5-7-8-7---5\--------------------------------------------------------|
d---------------------5-/8---6---1-----------------------------------------|
a------------------------------------3-------------------------------------|
e--------------------------------------------------------------------------|


e----------------------------------------------------------------------------|
b----------------------------------------------------------------------------|
g----------------------------------------------------------------------------|
d-----5555---5555---6666---6666----------------------------------------------|
a-----5555---5555---6666---6666----------------------------------------------|
e-----3333---3333---4444---4444----------------------------------------------|


e--------------------------------------------------------------------------|
b--------------------------------------------------------------------------|
g---0-5-7-8-7---5\---------------------------------------------------------|
d--------------------5-/8---6---1---5--------------------------------------|
a--------------------------------------------------------------------------|
e--------------------------------------------------------------------------|


**                                          x2, back to **
e-----------------------------------------|---------------------------------------|
b--------8-9-8-------------8-9-8h9p8------|11-9-9-8-8--------------8-9-8h9p8------|
g---8-10---------10-8-8-10-----------10-8-|-----------10-10-8-8-10-----------10-8-|
d-----------------------------------------|---------------------------------------|
a-----------------------------------------|---------------------------------------|
e-----------------------------------------|---------------------------------------|


x3, then **
e----------------------------------------------------------------------------|
b---11---9h11p9-8-9---8h9p8-6-8---6h8p6-4-6-4-4-6----------------------------|
g----------------------------------------------------------------------------|
d----------------------------------------------------------------------------|
a----------------------------------------------------------------------------|
e----------------------------------------------------------------------------|

x3                                     nt sure abt tis
e-------6-8-6-----------6-8-6h8p6-----|--------------------------------------------|
b---8-9---------9-8-8-9-----------9-8-|--------------------------------------------|
g-------------------------------------|---8-8-8--88-8-8----------------------------|
d-------------------------------------|---x-x-x--xx-x-x----------------------------|
a-------------------------------------|---6-6-6--66-6-6----------------------------|
e-------------------------------------|--------------------------------------------|

***                                                    x2, back to ***
e-----------------------------------------------------|-----------------------------------------------------|
b---------12-13-12---------------12-13-12h13p12-------|-15-13-13-12-12----------------12-13-12h13p12--------|
g---12-14------------14-12-12-14----------------14-12-|----------------14-14-12-12-14----------------14-12--|
d-----------------------------------------------------|-----------------------------------------------------|
a-----------------------------------------------------|-----------------------------------------------------|
e-----------------------------------------------------|-----------------------------------------------------|

x3
e-------10-12-10---------------10-12-10h12p10---------|------------------------------|
b-12-13------------13-12-12-13----------------13-12---|------------------------------|
g-----------------------------------------------------|---12-12-12---12-12--12-12----|
d-----------------------------------------------------|---x--x--x----x--x---x--x-----|
a-----------------------------------------------------|---10-10-10---10-10--10-10----|
e-----------------------------------------------------|------------------------------|
Tap to rate this tab
# A B C D E F G H I J K L M N O P Q R S T U V W X Y Z