Song name
# A B C D E F G H I J K L M N O P Q R S T U V W X Y Z

Bone Thugs N Harmony - Notorious Thugs tab

Intro/Main Riff: 

E|----------22-17----------|
B|-17-19-20-------20-19-20-|
G|-------------------------|Repeat 6X
D|-------------------------|
A|-------------------------|
E|-------------------------|

E|----------17-22-17-22-20-19-17-19----17----------|
B|-17-19-20-------------------------20----20-19-20-|
G|-------------------------------------------------|
D|-------------------------------------------------|
A|-------------------------------------------------|
E|-------------------------------------------------|
Tap to rate this tab
# A B C D E F G H I J K L M N O P Q R S T U V W X Y Z