Song name
# A B C D E F G H I J K L M N O P Q R S T U V W X Y Z

Bone Thugs N Harmony - Ecstasy tab

Tuning:Standard

:36
----------5--------------6-----------------------------------|
----------6--------------6-----------------------------------|
-----7----7--------------7-----------------------------------|
---7---7------------8---------------7-----8--10-12-----------|
-5----------------8---8-----------7---7---8--10-12-----------|
----------------6---------------5---------6--8--10-----------|

Solo-Guitar
----5/10--10--8---------------------|
-------------------11--10--11--10---|
------------------------------------|
------------------------------------|
------------------------------------|
------------------------------------|



Bass
-------------------------------------------|
-------------------------------------------|
-5-5-3-5-5---------------------------------|
------------6-6-5-6-6---6-6-5-5-6--8--10---|

Tap to rate this tab
 
# A B C D E F G H I J K L M N O P Q R S T U V W X Y Z