Song name
# A B C D E F G H I J K L M N O P Q R S T U V W X Y Z

Bone Thugs N Harmony - Thuggish Ruggish Bone tab

Song: Thuggish Ruggish Bone
By: Bone Thugs and Harmony
Tabbed by: Jenji the Great!

intro (harmonics)
19----12-----19-----12-------|
---19-----12-----19-----12---|
-----------------------------|
-----------------------------|
-----------------------------|
-----------------------------|
then play this throughout the whole song
-5-------8-7---5-------8-7----------8-7--------------------------|
---5-8-5-----8---5-8-5-----8-10-8-5-----8------------------------|
-----------------------------------------------------------------|
-----------------------------------------------------------------|
-----------------------------------------------------------------|
-----------------------------------------------------------------|
Tap to rate this tab
 
# A B C D E F G H I J K L M N O P Q R S T U V W X Y Z