Song name
# A B C D E F G H I J K L M N O P Q R S T U V W X Y Z

Boney M - Daddy Cool tab

E|-----------------|-----------------|
B|-----------------|-----------------|
G|-----------1-0---|-----------------|
D|-3-3-3-3-3-----3-|-1-1-1-1-1---1-2-|
A|-----------------|-----------3-----|
E|-----------------|-----------------|

E|-----------------|-----------------|
B|-----------------|-----------------|
G|-----------1-0---|-----------------|
D|-3-3-3-3-3-----3-|-1-1-1-1-1---1-2-|
A|-----------------|-----------3-----|
E|-----------------|-----------------|
Repeat the same thing throughout the intro with strings.
Tap to rate this tab
# A B C D E F G H I J K L M N O P Q R S T U V W X Y Z