Guitaretab - guitar tabs
Song name
# A B C D E F G H I J K L M N O P Q R S T U V W X Y Z

Boney Nem - Felicita tab

Boney neM - Felicita
Album : The Very Best of Greatest Hits ('2001)


Intro

Riff 1

Gtr1 and Gtr2

||----------------------------------||
||----*-*-*---*-*-*---*-*-*---------||
||----7-6-5---7-6-5---7-6-5---------||
||----5-4-3---5-4-3---5-4-3---------||
||----------------------------------||
||----------------------------------||
(* - during the song, guitar1 plays lower notes, guitar2 - upper)

 
Riff 1a

Gtr1 and Gtr2                                          x7
||------------------------------------------------------|-----------------------------------||
||*-------------------------------------------*--*-*---*|-----------------------------------||
||---------5------------5------------5--------/7-6-5----|---------5------------5--------12~-||
||---------5------------5------------5--------/5-4-3----|---------5------------5------------||
||*--3-3-3-3-3-3-3-3-3-3-3-3--3-3-3-3-3-3-------------*|---3-3-3-3-3-3-3-3-3-3-3-3--------||
||------------------------------------------------------|--------------------------------3~-||
[ Tab from: http://www.guitaretab.com/b/boney-nem/33321.html ]
p.m. . . .   . .  . . .   . .  . . .   . .                  . . .   . .  . . .   . .

 
Verse

Riff 2

Gtr1 and Gtr2                                          x2
||------------------------------------------------------|
||*-----------------------------------------------------|
||----------5------------5------------5------------5----|
||----------5------------5------------5------------5----|
||*---3-3-3-3-3-3-3-3-3-3-3-3--3-3-3-3-3-3--3-3-3-3----|
||------------------------------------------------------|
p.m.  . . .   . .  . . .   . .  . . .   . .  . . .  

 
Gtr1 and Gtr2                                          x2

||------------------------------------------------------|
||*-----------------------------------------------------|
||----------7------------7------------7------------7----|
||----------7------------7------------7------------7----|
||*---5-5-5-5-5-5-5-5-5-5-5-5--5-5-5-5-5-5--5-5-5-5----|
||------------------------------------------------------|
p.m.  . . .   . .  . . .   . .  . . .   . .  . . .  

 
Tabbed by Radchenko Konstantin
Related for Felicita tab