Song name
# A B C D E F G H I J K L M N O P Q R S T U V W X Y Z

Boney Nem - Youre My Heart Youre My Soul tab

Help us improve GuitareTab! Take a short survey!
#----------------------------------PLEASE NOTE---------------------------------#
#This file is the author's own work and represents their interpretation of the #
#song. You may only use this file for private study, scholarship, or research. #
#------------------------------------------------------------------------------#
Transcribed by: Radtchenko Konstantin (kostarv@yahoo.com)

Band: Boney NEM
Song: You're my heart, you're my soul 

 
Tuning D


Intro

Gtr 1 
||-------------------------------------------------------------------------|
||-------------------------------------------------------------------------|
||-------------------------------------------------------------------------|
||-------------------------------------------------------------------------|
||----7-7--5-(5)---5-5--3-(3)----7-7--5-(5)-----5-5--3-(3)-----------------|
||----5-5--3-(3)---3-3-1(1)----5-5--3-(3)-----3-3-1(1)-----------------|
|                                                                          |
|                                                                          |
Gtr 2                                                                      |
||-------------------------------------------------------------------------|
||--10-10-8~-------8-86~-------10-10-8-(8)-----8-8-6~---------------------|
||---------------------------------------\/\/\/----------------------------|
||-------------------------------------------------------------------------|
||-------------------------------------------------------------------------|
||-------------------------------------------------------------------------|
 

Gtr 1 and Gtr 2
||---------------------------------------------------------------------------|
||---------------------------------------------------------------------------|
||---------------------------------------------------------------------------|
||---------------------------------------------------------------------------|
||-----7-7--5--------------------------5-5--3--------------------------------|
||-----5-5--3--3-3-3-3-3-3-3-3-3-3-3---3-3--1--1-1-1-1-1-1-1-1-1-1-1---------|
p.m.           . . . . . . . . . . .           . . . . . . . . . . .


Gtr 1 and Gtr 2
|----------------------------------------------------------------------------||
|----------------------------------------------------------------------------||
|----------------------------------------------------------------------------||
|----------------------------------------------------------------------------||
|-----7-7--5--------------------------5-5--3----------------------------7----||
|-----5-5--3--3-3-3-3-3-3-3-3-3-3-3---3-3--1--1-1-1-1-1-1-1-1-1-1-1-----5----||
p.m.          . . . . . . . . . . .           . . . . . . . . . . .

 
Verse 1

Gtr 1 (clean electric)


Am                                        G   Fill 1

Deep in my heart, theres a fire, burning heart

Am                                         G   Fill 1

Deep in my heart, theres desire, for start

Dm

Im dying in an emotion

Am

It's my world in fantasy
?                 ?          G   Fill 2

Im livin in my, livin in my dreams


 
fill 1  

Gtr 2    1/2
||-------/-------------||
||------/--------------||
||-----12r-(12)~-------||
||---------------------||
||---------------------||
||---------------------||

 
fill 2  

Gtr 2    1/2
||-------/-------------||
||------/--------------||
||-----12r-(12)~\------||
||---------------------||
||---------------------||
||---------------------||

 
Fill 3

Gtr 3
||------------||
||------------||
||--5--7p9----||
||------------||
||------------||
||------------||


Pre-chorus 1

Gtr 1 (clean electric)

____ Youre my heart ...
||---0--0--0--0--0--1--1--1--1--1--3--3--3--3--3--0-0--0--0--0-----||
||---1--1--1--1--1--3--3--3--3--3--3--3--3--3--3--1--1--1--1--1-----||
||---2--2--2--2--2--2--2--2--2--2--0--0--0--0--0--2--2--2--2--2-----||
||---2--2--2--2--2--0--0--0--0--0--0--0--0--0--0--2--2--2--2--2-----||
||---0--0--0--0--0--0--0--0--0--0--2--2--2--2--2--0--0--0--0--0-----||
||---0--0--0--0--0-----------------3--3--3--3--3--0--0--0--0--0-----||

all chord hit from down to up...

 

Gtr 1 (clean electric)

____ Youre my heart ...
|---0--0--0--0--0--1--1--1--1--1--3--3--3--3--3--0-0--0--0--0-----||
|---1--1--1--1--1--3--3--3--3--3--0--0--0--0--0--1--1--1--1--1-----||
|---2--2--2--2--2--2--2--2--2--2--0--0--0--0--0--2--2--2--2--2-----||
|---2--2--2--2--2--0--0--0--0--0--0--0--0--0--0--2--2--2--2--2-----||
|---0--0--0--0--0--0--0--0--0--0--2--2--2--2--2--0--0--0--0--0-----||
|---0--0--0--0--0-----------------3--3--3--3--3--0--0--0--0--0-----||


Chorus

Gtr 1 and Gtr 2
||---------------------------------------------------------------------------|
||---------------------------------------------------------------------------|
||---------------------------------------------------------------------------|
||---------------------7-----7-----7-----------------------------------------|
||----7-----7-----7----5-5-5-5-5-5-5-5--5-----5-----5----7-----7-----7-------|
||----5-5-5-5-5-5-5-5-------------------3-3-3-3-3-3-3-3--5-5-5-5-5-5-5-5-----|
p.m.    . .   . .   .    . .   . .   .    . .   . .   .    . .   . .   .

 
Gtr 1 and Gtr 2
|--------------------------------------------------------------------------||
|--------------------------------------------------------------------------||
|--------------------------------------------------------------------------||
|---------------------7-----7-----7----------------------------------------||
|----7-----7-----7----5-5-5-5-5-5-5-5--5-----5-----5----7-----7------------||
|----5-5-5-5-5-5-5-5-------------------3-3-3-3-3-3-3-3--5-5-5-5-5-5-5-5----||
p.m.   . .   . .   .    . .   . .   .    . .   . .   .    . .   . . . .

 
Bridge

Gtr 1 and Gtr 2
||------------------------------------------------------------------||
||------------------------------------------------------------------||
||------------------------------------------------------------------||
||------------------------------------------------------------------||
||----7-7--5-(5)---5-5--3-(3)----7-7--5-(5)---5-5--3-(3)----\x------||
||----5-5--3-(3)---3-3-1(1)----5-5--3-(3)---3-3-1(1)----\x------||
 
Verse 2

Gtr 1 and Gtr 2                                    x2
||---------------------------------------------------|
||*-------------------------------------------------*|
||---------------------------------------------------|
||---------------------------------------------------|
||*-------------------------------------------------*|
||----555---5555--555--5555--000--0000--0000000-----|
p.m.  ...   ....  ...  ....  ...  ....  ... .... 


Gtr 1 and Gtr 2
|----------------------------------------------------------------------------------------||
|----------------------------------------------------------------------------------------||
|----------------------------------------------------------------------------------------||
|--------------------------------------------------------------------------7-------------||
|----------------------------------------------------------------------7---5---5----\x---||
|---555--5555--555--5555--555-5555--333--3333--333--3333--333--3333----5-------3----\x---||
p.m....  ....  ...  ....  ... ...   ...  ....  ...  ....  ...  ....

 
Pre-chorus 2

Gtr 1 and Gtr 2                                           x2
||--------------------------------------------------------||
||*------------------------------------------------------*||
||--------------------------------------------------------||
||----------------7--7--7--7------------------------------||
||*---7-7--7-7--5--5--5--5---5--5--5--5---7--7--7-7\--*||
||----5-5--5--5---------------3-3-3-3---5--5--5-5\---||

                                                  At 2nd time - Slide...
 

horus

Solo Rhythm

Solo

Pre-chorus 2

horus
Related for Youre My Heart Youre My Soul tab