Guitaretab - guitar tabs
Song name
# A B C D E F G H I J K L M N O P Q R S T U V W X Y Z

Boney Nem - We Are The World We Are The Children tab

#----------------------------------PLEASE NOTE---------------------------------#
#This file is the author's own work and represents their interpretation of the #
#song. You may only use this file for private study, scholarship, or research. #
#------------------------------------------------------------------------------#
Transcribed by: Radtchenko Konstantin (kostarv@yahoo.com)

Band: Boney NEM
Song: We are the world, we are the children

Tuning D


Intro
Gtr 1
||------------------------------------------------------------------------------------------|
||------------------------------------------------------------------------------------------|
||------------------------------------------------------------------------------------------|
||---5-(5)----------------5-(5)-----------------------------5-(5)---------------5\--2-(2)---|
||---3(3)--3-(3)-5-(5)--3-(3)---------------3-(3)--5-(5)--3-(3)---------------3\--0-(0)---|
||----------1-(1)--3-(3)----------------------1-(1)--3(3)----------------------------------|
|                                                                                           |
|                                                                                           |
Gtr 2                                                                                       | 
||------------------------------------------------------------------------------------------|
||------------------------------------------------------------------------------------------|
||------------------------------------------------------------------------------------------|
||---5-(5)----------------5-(5)-------5-(5)-----------------5-(5)-------5(5)---5\--2(2)---|
||---3(3)--3-(3)-5-(5)--3-(3)-3-3-3-3-(3)---3-(3)--5-(5)--3-(3)-3-3-3-3(3)---3\--0-(0)---|
||----------1-(1)--3-(3)----------------------1(1)--3-(3)----------------------------------|
p.m.                            . . .                             . . .
[ Tab from: http://www.guitaretab.com/b/boney-nem/33326.html ]
 
Gtr 1 and Gtr 2
|---------------------------------------------------------------------------------||
|---------------------------------------------------------------------------------||
|---------------------------------------------------------------------------------||
|---------------------------------------------------------5-----5-----4/5-5-------||
|--2-(2)---2-----2-(2)--3-----3-----3----5-----5-----5----3-3-3-3-3-3-2/3-3-------||
|--0(0)---0-0-0-0(0)--1-1-1-1-1-1-1-1--3-3-3-3-3-3-3-3--------------------------||
p.m.         . .          . .   . .   .    . .   . .   .    . .   . .


Verse

Gtr 1 and Gtr 2
||---------------------------------------------------------------------------------|
||---------------------------------------------------------------------------------|
||---------------------------------------------------------------------------------|
||--------------------------------------5-----5----------5-----5-------------------|
||----3-----3-----3----5-----5-----5----3-3-3-3-3-3-3-3-3-3-3-3-3-3-3-3-----------|
||----1-1-1-1-1-1-1-1--3-3-3-3-3-3-3-3---------------------------------------------|
p.m.    . .   . .   .    . .   . .   .    . .   . . . .    . .   . . . .


Gtr 1 and Gtr 2
|---------------------------------------------------------------------------------||
|---------------------------------------------------------------------------------||
|---------------------------------------------------------------------------------||
|--------------------------------------5-----5----------5-------------------------||
|----3-----3-----3----5-----5-----5----3-3-3-3-3-3-3-3-3-3-3-000500030-----------||
|----1-1-1-1-1-1-1-1--3-3-3-3-3-3-3-3---------------------------------------------||
p.m.   . .   . .   .    . .   . .   .    . .   . . . .    . . .........  

 
Chorus

Gtr 1 and Gtr 2
||------------------------------------------------------|
||------------------------------------------------------|
||------------------------------------------------------|
||------------------------------------------------------|
||-----7(7)--7-----7-7-(7)-----5(5)--5-----5-5--------|
||-----5-(5)--5-5-5-5-5-(5)-----3-(3)--3-3-3-3-3--------|
p.m.            . .                      . .


Gtr 1 and Gtr 2
|----------------------------------------------------------------||
|----------------------------------------------------------------||
|----------------------------------------------------------------||
|----------------------------------------5-----5-----4/5-5-------||
|------3-----3-----3----5-----5-----5----3-3-3-3-3-3-2/3-3-------||
|------1-1-1-1-1-1-1-1--3-3-3-3-3-3-3-3--------------------------||
p.m.     . .   . .   .    . .   . .   .    . .   . .
Related for We Are The World We Are The Children tab