Song name
# A B C D E F G H I J K L M N O P Q R S T U V W X Y Z

Bonfire Willies - Whore Door tab

Help us improve GuitareTab! Take a short survey!
whore door

intro:
--------------------------------------------------------------------------------------------------------------------------------------|
--------------------------------------------------------------------------------------------------------------------------------------|
--------------------------------------------------------------------------------------------------------------------------------------|
-7-10-9-10---------7-10-9-10-----------5--------2------5-5-5-5-----------2-2-2-2-----------5-5-5-5-----------2-2-2-2------------------|
--------------7--------------------7--------3---5---0---3--3-3-3-3-5-5-5-5-0-0-0-0-3-3-3-3-3-3-3-3-5-5-5-5-0-0-0-0-3-3-3-3------------|
--------------------------------------------------3-------1------------3-3-3-3-----------1-1-1-1-----------3-3-3-3-----------1-1-1-1--|

verse/chorus:
----------------------------------------------------------------------------------|
----------------------------------------------------------------------------------|
----------------------------------------------------------------------------------|
-5-5-5-5-5-5-5-5---------------------2-2-2-2-2-2-2-2------------------------------|
-3-3-3-3-3-3-3-3-5-5-5-5-5-5-5-5-0-0-0-0-0-0-0-0-3-3-3-3-3-3-3-3------------------|
---------------------3-3-3-3-3-3-3-3---------------------1-1-1-1-1-1-1-1----------|

interlude:
------------------------------------------|
------------------------------------------|
------------------------------------------|
------------------------------------------|
-3-3-3-3-5-5-5-5-7-7-7-7-8-8-8-8----------|
------------------------------------------|

intro
verse 4x
interlude 2x
chorus 2x
interlude 2x
verse 4x
interlude 2x
chorus 2x
interlude 2x
verse 4x

end on
---
---
---
-5-
-3-
---
Related for Whore Door tab