Song name
# A B C D E F G H I J K L M N O P Q R S T U V W X Y Z

Bongzilla - Kash Under Glass tab

Help us improve GuitareTab! Take a short survey!
http://shop.relapse.com/artist/artist.aspx?ArtistID=10013 For proof that it's a signed band.

Bongzilla - Kash Under Glass
Amerijuanican (2005)
Tabbed By ruker (Varuker@gmail.com)
Tuned Down 3 Steps BEADF#B

-------------
Key:
-------------
. Palm Mute
~ Vibrato
h Hammer-On
p Pull-Off
\ Slide Up
/ Slide Down
-------------

Fade-In Feedback

Riff A (0:01)                                  4x
||-----------------------------------------------||
||*---------------------------------------------*||
||-----------------------------------------------||
||-----------------------------------------------||
||*----------------------------------5-7-5-5h7~-*||
||--0--0-3p2-0-0--0-5p3-0-0--0-3p2-0-------------||

Riff B (0:20)
||--------------------------------------------------------------------------------------||
||*------------------------------------------------------------------------------------*||
||--------------------------------------------------------------------------------------||
||--9--9-9-9-9-9/10\9-7---9--9-9-9-9-9/10\9-12-----9--9-9-9-9-9/10\9-7------------------||
||*-7--7-7-7-7-7/8-\7-5---7--7-7-7-7-7/8-\7-10-----7--7-7-7-7-7/8-\7-5---8-7-----5-4---*||
||-----------------------------------------------------------------------6-5---0-3-2----||
       . . . .               . . . .                   . . . .                 .

Riff A (0:37)                                  6x
||-----------------------------------------------||
||*---------------------------------------------*||
||-----------------------------------------------||
||-----------------------------------------------||
||*----------------------------------5-7-5-5h7~-*||
||--0--0-3p2-0-0--0-5p3-0-0--0-3p2-0-------------||

Riff B (1:06)
||--------------------------------------------------------------------------------------||
||*------------------------------------------------------------------------------------*||
||--------------------------------------------------------------------------------------||
||--9--9-9-9-9-9/10\9-7---9--9-9-9-9-9/10\9-12-----9--9-9-9-9-9/10\9-7------------------||
||*-7--7-7-7-7-7/8-\7-5---7--7-7-7-7-7/8-\7-10-----7--7-7-7-7-7/8-\7-5---8-7-----5-4---*||
||-----------------------------------------------------------------------6-5---0-3-2----||
       . . . .               . . . .                   . . . .                 .


Chorus (1:23)                                        4x
||-----------------------------------------------------||
||*---------------------------------------------------*||
||-----------------------------------------------------||
||--9--7---------------------9--7----------------------||
||*-7--5--8-7--8--7--5--7-5--7--5--8-7--8--7--5--4-4--*||
||--------6-5--6--5--3--5-3--------6-5--6--5--3--2-2---||

Riff A (1:57)                                  6x
||-----------------------------------------------||
||*---------------------------------------------*||
||-----------------------------------------------||
||-----------------------------------------------||
||*----------------------------------5-7-5-5h7~-*||
||--0--0-3p2-0-0--0-5p3-0-0--0-3p2-0-------------||

Riff B (2:24)
||--------------------------------------------------------------------------------------||
||*------------------------------------------------------------------------------------*||
||--------------------------------------------------------------------------------------||
||--9--9-9-9-9-9/10\9-7---9--9-9-9-9-9/10\9-12-----9--9-9-9-9-9/10\9-7------------------||
||*-7--7-7-7-7-7/8-\7-5---7--7-7-7-7-7/8-\7-10-----7--7-7-7-7-7/8-\7-5---8-7-----5-4---*||
||-----------------------------------------------------------------------6-5---0-3-2----||
       . . . .               . . . .                   . . . .                 .


Chorus (2:42)                                        4x
||-----------------------------------------------------||
||*---------------------------------------------------*||
||-----------------------------------------------------||
||--9--7---------------------9--7----------------------||
||*-7--5--8-7--8--7--5--7-5--7--5--8-7--8--7--5--4-4--*||
||--------6-5--6--5--3--5-3--------6-5--6--5--3--2-2---||

Outro (3:16)
||--------------------------------------------------------------------------------|
||*-------------------------------------------------------------------------------|
||--------------------------------------------------------------------------------|
||--------------------------------------------------------------------------------|
||*-2----------2----------2----------7--5--2----------2----------2----------5--4--|
||--0--0-0-0-0-0--0-0-0-0-0--0-0-0-0-5--3--0--0-0-0-0-0--0-0-0-0-0--0-0-0-0-3--2--|
       . . . .    . . . .    . . . .          . . . .    . . . .    . . . .

                                                                 2x
|------------------------------------------------------------------||
|-----------------------------------------------------------------*||
|------------------------------------------------------------------||
|-----------------------------------------9--7---------------------||
|--2----------2----------2----------7--5--7--5--8--7--5--7--5--4--*||
|--0--0-0-0-0-0--0-0-0-0-0--0-0-0-0-5--3--------6--5--3--5--3--2---||
      . . . .    . . . .    . . . .


||--------------------------------------------------------------------------------|
||--------------------------------------------------------------------------------|
||--------------------------------------------------------------------------------|
||--------------------------------------------------------------------------------|
||--2----------2----------2----------7--5--2----------2----------2----------5--4--|
||--0--0-0-0-0-0--0-0-0-0-0--0-0-0-0-5--3--0--0-0-0-0-0--0-0-0-0-0--0-0-0-0-3--2--|
       . . . .    . . . .    . . . .          . . . .    . . . .    . . . .


|----------------------------------------------------------------------------------||
|----------------------------------------------------------------------------------||
|----------------------------------------------------------------------------------||
|-----------------------------------------9--7-------------------------------------||
|--2----------2----------2----------7--5--7--5--8--7---5---7----5----4----2--------||
|--0--0-0-0-0-0--0-0-0-0-0--0-0-0-0-5--3--------6--5---3---5----3----2----0--------||
      . . . .    . . . .    . . . .             ^---gradually slow down------------||


Any questions or comments can be e-mailed to the address above or left in the comments box below.
Related for Kash Under Glass tab