Song name
# A B C D E F G H I J K L M N O P Q R S T U V W X Y Z

Bongzilla - Tri-pack Master tab

Bongzilla - Tri-Pack Master
Amerijuanican (2005)
Tabbed By ruker (Varuker@gmail.com)
Tuned Down 3 Steps BEADF#B

-------------
Key:
-------------
. Palm Mute
~ Vibrato
h Hammer-On
p Pull-Off
\ Slide Up
/ Slide Down
-------------



Riff A (0:07)                                       4x
||----------------------------------------------------||
||*--------------------------------------------------*||
||----------------------------------------------------||
||----------------------------------------------------||
||*-5/7-7-7--7--7--5-7-7-7--5/7-7-7--7--9--8--7--5-7-*||
||--3/5-5-5--5--5--3-5-5-5--3/5-5-5--5--7--6--5--3-5--||



Riff B (0:26)                       4x
||------------------------------------||
||*----------------------------------*||
||------------------------------------||
||--------------7--9-9--7-------------||
||*-5--7--8--9--5--7-7--5--9--8--7-5-*||
||--3--5--6--7-------------7--6--5-3--||



Riff A (0:45)                                       4x
||----------------------------------------------------||
||*--------------------------------------------------*||
||----------------------------------------------------||
||----------------------------------------------------||
||*-5/7-7-7--7--7--5-7-7-7--5/7-7-7--7--9--8--7--5-7-*||
||--3/5-5-5--5--5--3-5-5-5--3/5-5-5--5--7--6--5--3-5--||



Riff B (1:04)                       4x
||------------------------------------||
||*----------------------------------*||
||------------------------------------||
||--------------7--9-9--7-------------||
||*-5--7--8--9--5--7-7--5--9--8--7-5-*||
||--3--5--6--7-------------7--6--5-3--||



Chorus (1:23)                            4x
||-----------------------------------------||
||*---------------------------------------*||
||-----------------------------------------||
||-----------------------------------------||
||*-9--8--7---5--7\5/7--9--8--7---5--7--5-*||
||--7--6--5---3--5\3/5--7--6--5---3--5--3--||



Riff A (1:43)                                       4x
||----------------------------------------------------||
||*--------------------------------------------------*||
||----------------------------------------------------||
||----------------------------------------------------||
||*-5/7-7-7--7--7--5-7-7-7--5/7-7-7--7--9--8--7--5-7-*||
||--3/5-5-5--5--5--3-5-5-5--3/5-5-5--5--7--6--5--3-5--||



Riff B (2:01)                       4x
||------------------------------------||
||*----------------------------------*||
||------------------------------------||
||--------------7--9-9--7-------------||
||*-5--7--8--9--5--7-7--5--9--8--7-5-*||
||--3--5--6--7-------------7--6--5-3--||



Chorus (2:21)                            6x
||-----------------------------------------||
||*---------------------------------------*||
||-----------------------------------------||
||-----------------------------------------||
||*-9--8--7---5--7\5/7--9--8--7---5--7--5-*||
||--7--6--5---3--5\3/5--7--6--5---3--5--3--||


Outro (2:49)
||-----------------------------------------------------||
||*---------------------------------------------------*||
||-----------------------------------------------------||
||-----------------------------------------------------||
||*-5/7-7-7--7--7--7-7-/10~--5/7-7-7--7--7--7-7-/12~--*||
||--3/5-5-5--5--5--5-5-------3/5-5-5--5--5--5-5--------||
Tap to rate this tab
# A B C D E F G H I J K L M N O P Q R S T U V W X Y Z