Song name
# A B C D E F G H I J K L M N O P Q R S T U V W X Y Z

Bongzilla - Stonesphere tab

Bongzilla - Stonesphere
Amerijuanican (2005)
Tabbed By ruker
Tuned Down 2.5 Steps BEADF#B

-------------
Key:
-------------
. Palm Mute
~ Vibrato
h Hammer-On
p Pull-Off
b Bend
r Release
/ Slide Up
\ Slide Down
-------------


Intro (0:08)
||---------------------------------------------------||
||*-------------------------------------------------*||
||---------------------------------------------------||
||--------------5--7--5-7p5h7------------------------||
||*-5--7-7--7------------------5--7-7--7---5--7\----*||
||---------------------------------------------------||



Riff A (0:22)                                              26x
||------------------------------------------------------------||
||*----------------------------------------------------------*||
||--------------7--9--7-9\7/9---------------------------------||
||--7--9-9--9---5--7--5-7\5/7--7--9-9--9---5-5----4-4---------||
||*-5--7-7--7------------------5--7-7--7--------5------5-7\--*||
||------------------------------------------------------------||


                               ____________
Riff B (2:32)                 |1,2,3     4x|
||----------------------------|------------||
||*---------------------------|-----------*||
||----------------------------|------------||
||--12---11--7-9\-----12---7--|-9--7-9\----||
||*-10---9---5-7\-----10---9--|-7--5-7\---*||
||----------------------------|------------||



Fill A (3:00)
  ______________
 |4             |
||--------------||
||*------------*||
||--------------||
||--9--7-9~-----||
||*-7--5-7~----*||
||--------------||



Fill B (3:50)
||--------------||
||*------------*||
||--------------||
||--7----9~-----||
||*-5----7~----*||
||--------------||



Fill C (4:48)
||---------------|| Feedback and
||---------------||   "rips" at
||---------------||      this part
||--9~~~~--------|| Alternative
||--7~~~~--------||   w/ Fill B
||---------------||   



Riff A (9:30)                                              26x
||------------------------------------------------------------||
||*----------------------------------------------------------*||
||--------------7--9--7-9\7/9--------------7-7----------------||
||--7--9-9--9---5--7--5-7\5/7--7--9-9--9---5-5--7-4-4--7-9\---||
||*-5--7-7--7------------------5--7-7--7--------5------5-7\--*||
||------------------------------------------------------------||


                               ____________
Riff B (11:22)                |1,2,3     4x|
||----------------------------|------------||
||*---------------------------|-----------*||
||----------------------------|------------||
||--12---11--7-9\-----12---7--|-9--7-9\----||
||*-10---9---5-7\-----10---9--|-7--5-7\---*||
||----------------------------|------------||



Fill A (11:50)
  ______________
 |4          10x|
||--------------||
||*------------*||
||--------------||
||--9--7-9~-----||
||*-7--5-7~----*||
||--------------||



Fill D (12:08)         8x
||-----------------------||
||*---------------------*||
||-----------------------||
||--9--7/9--7/9--7/9--7--||
||*-7--5/7--5/7--5/7--5-*||
||-----------------------||



Outro (12:24)
||-----------------------------||
||-----------------------------||
||-----------------------------||
||-9--7-9\-----12---11--7-9\---||
||-7--5-7\-----10---9---5-7\---||
||-----------------------------||
Tap to rate this tab
# A B C D E F G H I J K L M N O P Q R S T U V W X Y Z