Song name
# A B C D E F G H I J K L M N O P Q R S T U V W X Y Z

Bongzilla - Greenthumb tab

Bongzilla - Greenthumb
Gateway (2002)
Tabbed By ruker (Varuker@gmail.com)
Tuned Down 2.5 Step BEADF#B

-------------
Key:
-------------
. Palm Mute
~ Vibrato
h Hammer-On
p Pull-Off
b Bend
r Release
/ Slide Up
\ Slide Down
-------------



Riff A (0:07)                                               5x
||------------------------------------------------------------||
||*----------------------------------------------------------*||
||------------------------------------------------------------||
||--------4--6--6--4-6--4-6--4------------4--6--7--6-4--------||
||*-4--6--2--4--4--2-4--2-4--2-6--2-4--6--2--4--5--4-2--6-/--*||
||--2--4-----------------------4--0-2--4----------------4-/---||



Fill (1:15)                                    2x
||-----------------------------------------------||
||*---------------------------------------------*||
||-----------------------------------------------||
||-----------------------------------------------||
||*----2----------2----------2-------2--4-5p4-2-*||
||--4----4-2-0-4----4-2-0-4----4-2-0-------------||



Riff B (1:25)                                  4x
||-----------------------------------------------||
||*---------------------------------------------*||
||-----------------------------------------------||
||-----4----------4----------4-------4--6/7\6\4--||
||*-6--2-6-4-2-6--2-6-4-2-6--2-6-4-2-2--4/5\4\2-*||
||--4----4-2-0-4----4-2-0-4----4-2-0-------------||



Riff C (1:42)                              4x
||-------------------------------------------||
||*-----------------------------------------*||
||-------------------------------------------||
||-------4-4---------------------4--6/7\6\4--||
||*-6----2-2--6-6--4-6----6-6----2--4/5\4\2-*||
||--4---------4-4--2-4----4-4----------------||
         .    .    .      .       


Fill (2:12)                                    2x
||-----------------------------------------------||
||*---------------------------------------------*||
||-----------------------------------------------||
||-----------------------------------------------||
||*----2----------2----------2-------2--4-5p4-2-*||
||--4----4-2-0-4----4-2-0-4----4-2-0-------------||
         . . .      . . .      . . .


Riff B (2:20)                                  4x
||-----------------------------------------------||
||*---------------------------------------------*||
||-----------------------------------------------||
||-----4----------4----------4-------4--6/7\6\4--||
||*-6--2-6-4-2-6--2-6-4-2-6--2-6-4-2-2--4/5\4\2-*||
||--4----4-2-0-4----4-2-0-4----4-2-0-------------||
         . . .      . . .      . . .


Riff C (2:37)                              4x
||-------------------------------------------||
||*-----------------------------------------*||
||-------------------------------------------||
||-------4-4---------------------4--6/7\6\4--||
||*-6----2-2--6-6--4-6----6-6----2--4/5\4\2-*||
||--4---------4-4--2-4----4-4----------------||
         .    .    .      .       


Riff D (3:06)                                         6x
||------------------------------------------------------||
||*----------------------------------------------------*||
||------------------------------------------------------||
||-----------4-----------4-----------4--/7--7--6-6--6---||
||*-6--4--6--2--6--4--6--2--6--4--6--2--/5--5--4-4--4--*||
||--4--2--4-----4--2--4-----4--2--4---------------------||



Outro (3:50)                                           4x
||-------------------------------------------------------||
||*-----------------------------------------------------*||
||-------------------------------------------------------||
||-----------------------------------------7--7--6-6--6--||
||*-6--4--6-2-2--6--4--6-2-2--6--4--6-2-2--5--5--4-4--4-*||
||--4--2--4-0-0--4--2--4-0-0--4--2--4-0-0----------------||
            . .          . .          . .        .
Tap to rate this tab
 
# A B C D E F G H I J K L M N O P Q R S T U V W X Y Z