Song name
# A B C D E F G H I J K L M N O P Q R S T U V W X Y Z

Bongzilla - Sunnshine Green tab

Bongzilla - Sunnshine Green
Gateway (2002)
Tabbed By ruker (Varuker@gmail.com)
Tuned Down 2.5 Step BEADF#B

-------------
Key:
-------------
. Palm Mute
~ Vibrato
h Hammer-On
p Pull-Off
b Bend
r Release
/ Slide Up
\ Slide Down
-------------


Intro (0:05)
  Bass Only
||--------------------------------------------------||
||--------------------------------------------------||
||-------------------7----7--6----3--3--------------||
||-4--4--4--6--6--6---------------------6--5--------||



Riff A (0:26)                                     4x
||--------------------------------------------------||
||*------------------------------------------------*||
||--------------------------------------------------||
||--------------------9----9--8----5--5-------------||
||*-6--6--6--8--8--8--7----7--6----3--3--8--7------*||
||--4--4--4--6--6--6---------------------6--5-------||



Bridge (1:47)
||----------------------------------------------------------------------------||
||----------------------------------------------------------------------------||
||----------------------------------------------------------------------------||
||----------------------------------------------------------------------------||
||-4-6--6-6--4-6--6-6--4-6--6-6-6-7-6-4--4-6--6-6--4-6--6-6--4-6--6-6-6-4-----||
||------------------------------------------------------------------------6-5-||



Riff B (1:56)                                                                 2x
||------------------------------------------------------------------------------||
||*----------------------------------------------------------------------------*||
||------------------------------------------------------------------------------||
||--6-8--8-8--6-8--8-8--6-8--8-8-8-9-8-6--6-8--8-8--6-8--8-8--6-8--8-8-8-6------||
||*-4-6--6-6--4-6--6-6--4-6--6-6-6-7-6-4--4-6--6-6--4-6--6-6--4-6--6-6-6-4-8-7-*||
||-------------------------------------------------------------------------6-5--||



Fill (2:13)   3x
||--------------||
||*------------*||
||--------------||
||--8-6---------||
||*-6-4--8--7--*||
||-------6--5---||



Riff B (2:17)                                                                 2x
||------------------------------------------------------------------------------||
||*----------------------------------------------------------------------------*||
||------------------------------------------------------------------------------||
||--6-8--8-8--6-8--8-8--6-8--8-8-8-9-8-6--6-8--8-8--6-8--8-8--6-8--8-8-8-6------||
||*-4-6--6-6--4-6--6-6--4-6--6-6-6-7-6-4--4-6--6-6--4-6--6-6--4-6--6-6-6-4-8-7-*||
||-------------------------------------------------------------------------6-5--||



Fill A (2:34) 3x
||--------------||
||*------------*||
||--------------||
||--8-6---------||
||*-6-4--8--7--*||
||-------6--5---||



Riff C (2:37)                                  5x
||-----------------------------------------------||
||*---------------------------------------------*||
||-----------------------------------------------||
||-------------------------6--8-----------6------||
||*-8--6--8--13\-----------4--6--4h6p4h6--4--8--*||
||--6--4--6--11\--4h6p4h6--------------------6---||



Fill B (3:06) 16x
||---------------||
||*-------------*||
||---------------||
||---------------||
||*-8--6--8-----*||
||--6--4--6------||



Outro (4:12)
||-------------------------------------------------------------||
||-------------------------------------------------------------||
||-------------------------------------------------------------||
||------------------------6--8-----------6---------------------||
||-8--6--8--13\-----------4--6--4h6p4h6--4--8--8--6--8--13\----||
||-6--4--6--11\--4h6p4h6--------------------6--6--4--6--11\----||
Tap to rate this tab
# A B C D E F G H I J K L M N O P Q R S T U V W X Y Z