Song name
# A B C D E F G H I J K L M N O P Q R S T U V W X Y Z

Bongzilla - Prohibition 4th Amendment tab

Bongzilla - Prohibition (4th Amendment)
Stash (1999)
Tabbed By ruker (Varuker@gmail.com)
Tuned Down 2.5 Steps BEADF#B

-------------
Key:
-------------
. Palm Mute
~ Vibrato
h Hammer-On
p Pull-Off
/ Slide Up
\ Slide Down
-------------

Intro (0:02)                           9x
||---------------------------------------|-------------------------------------||
||*-------------------------------------*|-------------------------------------||
||-------7--7h9p7------------------------|------7--7h9p7-----------------------||
||--7/9------------7--7h9p7--------------|-7/9------------7--7h9p7------9--9-9-||
||*--------------------------10--7--7-7-*|--------------------------10--7--7-7-||
||---------------------------------------|-------------------------------------||


Riff A (0:39)                          7x
||---------------------------------------||
||*-------------------------------------*||
||-------7--7h9p7------------------------||
||--7/9------------7--7h9p7------9--9-9--||
||*--------------------------10--7--7-7-*||
||---------------------------------------||


Bridge (1:07)
 Guitars                           
||--------------------------------------------------------------------------------------||
||--------------------------------------------------------------------------------------||
||------7--7h9p7------------------------------------------------------------------------||
||-7/9------------7--7h9p7------9~------------------------------------------------------||
||--------------------------10--7~------------------------------------------------------||
||--------------------------------------------------------------------------------------||
|                                                                                        |
|Bass                                                                                    |
||------7--7h9p7------------------------------------------------------------------------||
||-7/9------------7--7h9p7--------------------------------------------------------------||
||--------------------------10--7-7-7-7-7-5-----5---7--7----7-5-----5-------------------||
||------------------------------------------5-7---5-------------5-7---5-5-7-5--3--0-----||


Riff B (1:14)                                              2x
||-----------------------------------------------------------|
||*---------------------------------------------------------*|
||--9-9-9-9-9-7-----7---9--9----9-7-----7--------------------|
||--------------7-9---7-------------7-9---7-7-9-7------------|
||*------------------------------------------------10--7----*|
||-----------------------------------------------------------|


|---------------------------------------------------------||
|---------------------------------------------------------||
|-9-9-9-9-9-7-----7---9--9----9-7-----7-------------------||
|-------------7-9---7-------------7-9---7-7-9-7--12--9----||
|------------------------------------------------10--7----||
|---------------------------------------------------------||


Intro (1:36)                           7x
||---------------------------------------|-------------------------------------||
||*-------------------------------------*|-------------------------------------||
||-------7--7h9p7------------------------|------7--7h9p7-----------------------||
||--7/9------------7--7h9p7--------------|-7/9------------7--7h9p7------9--9-9-||
||*--------------------------10--7--7-7-*|--------------------------10--7--7-7-||
||---------------------------------------|-------------------------------------||


Riff A (2:04)                          7x
||---------------------------------------||
||*-------------------------------------*||
||-------7--7h9p7------------------------||
||--7/9------------7--7h9p7------9--9-9--||
||*--------------------------10--7--7-7-*||
||---------------------------------------||


Bridge (2:29)
 Guitars                           
||--------------------------------------------------------------------------------------||
||--------------------------------------------------------------------------------------||
||------7--7h9p7------------------------------------------------------------------------||
||-7/9------------7--7h9p7------9-------------------------------------------------------||
||--------------------------10--7-------------------------------------------------------||
||--------------------------------------------------------------------------------------||
|                                                                                        |
|Bass                                                                                    |
||------7--7h9p7------------------------------------------------------------------------||
||-7/9------------7--7h9p7--------------------------------------------------------------||
||--------------------------10--7-7-7-7-7-5-----5---7--7----7-5-----5-------------------||
||------------------------------------------5-7---5-------------5-7---5-5-7-5--3--0-----||


Riff B (2:39)                                              2x
||-----------------------------------------------------------|
||*---------------------------------------------------------*|
||--9-9-9-9-9-7-----7---9--9----9-7-----7--------------------|
||--------------7-9---7-------------7-9---7-7-9-7------------|
||*------------------------------------------------10--7----*|
||-----------------------------------------------------------|


|---------------------------------------------------------||
|---------------------------------------------------------||
|-9-9-9-9-9-7-----7---9--9----9-7-----7-------------------||
|-------------7-9---7-------------7-9---7-7-9-7--12--9----||
|------------------------------------------------10--7----||
|---------------------------------------------------------||


Outro (3:00)                          18x
||---------------------------------------||
||*-------------------------------------*||
||-------7--7h9p7------------------------||
||--7/9------------7--7h9p7--------------||
||*--------------------------10--7--7-7-*||
||---------------------------------------||
Tap to rate this tab
# A B C D E F G H I J K L M N O P Q R S T U V W X Y Z