Song name
# A B C D E F G H I J K L M N O P Q R S T U V W X Y Z

Bonnie Pink - Ring A Bell tab

-------------------------------------------------------------------------------
			     Ring A Bell - Bonnie Pink
-------------------------------------------------------------------------------
Tabbed by: co426e
Email: camplayer55@gmail.com

Tuning: Standard

Intro:
e|--------------------------------------------------------------|
B|--------------------------------------------------------------|
G|--6-6---6-6---------------------------------------------------|
D|--6-6---6-6---4--4--4-----------------------------------------|
A|--4-4---4-4---4--4--4-----------------------------------------|
E|--------------2--2--2-----------------------------------------|

Rest of song:

Section 1
e|--------------------------------------------------------------------------|
B|--------------------------------------------------------------------------|
G|----6-6---------6-6------------6-6---------6-6----------------------------|
D|----6-6---6-6---6-6---4-4--4---6-6---6-6---6-6---4-4-4-4------------------|
A|----4-4---6-6---4-4---4-4--4---4-4---6-6---4-4---4-4-4-4------------------|
E|----------4-4---------2-2--2---------4-4---------2-2-2-2------------------|

e|--------------------------------------------------------------------------|
B|--------------------------------------------------------------------------|
G|------------------6-6-6-6-6-6-6-6--8-8-8-8-8-8-8-8------------------------|
D|-6-6-6-6-6-6-6-6--6-6-6-6-6-6-6-6--8-8-8-8-8-8-8-8--8-8-8-8-8-8-8-8-------|
A|-6-6-6-6-6-6-6-6--4-4-4-4-4-4-4-4--6-6-6-6-6-6-6-6--8-8-8-8-8-8-8-8-------|
E|-4-4-4-4-4-4-4-4------------------------------------6-6-6-6-6-6-6-6-------|

e|--------------------------------------------------------------------------|
B|--------------------------------------------------------------------------|
G|------------------6-6-6-6-6-6-6-6--8-8-8-8-8-8-8-8--10--------------------|
D|-6-6-6-6-6-6-6-6--6-6-6-6-6-6-6-6--8-8-8-8-8-8-8-8--10--------------------|
A|-6-6-6-6-6-6-6-6--4-4-4-4-4-4-4-4--6-6-6-6-6-6-6-6--8---------------------|
E|-4-4-4-4-4-4-4-4----------------------------------------------------------|

e|--------------------------------------------------------------------|
B|--------------------------------------------------------------------|
G|---------------------3-3--------------------------------------------|
D|--4-4-4--6-6--3-3-3--3-3---4-4-4--4-4-4--3/6--8-8-8-----------------| x2
A|--4-4-4--6-6--3-3-3--1-1---4-4-4--4-4-4--3/6--8-8-8-----------------|
E|--2-2-2--4-4--1-1-1--------2-2-2--2-2-2--1/4--6-6-6-----------------|


Section 2
e|--------------------------------------------------------------------------|
B|--------------------------------------------------------------------------|
G|--------------------------------------------------------------------------|
D|--4-4-4--6-6-6-6--4-4-4--6-6-6-6--6-6-6--6-6-6-6--6--6--6--6--------------|
A|--4-4-4--6-6-6-6--4-4-4--6-6-6-6--6-6-6--6-6-6-6--6--6--6--6--------------|
E|--2-2-2--4-4-4-4--2-2-2--4-4-4-4--4-4-4--4-4-4-4--4--4--4--4--------------|

Go back to Section 1. On the second playthrough, skip Section 2 and go to Section 3.

Section 3
e|--------------------------------------------------------------------------|
B|--------------------------------------------------------------------------|
G|-------------------------3-3-3-3------------------------3-----------------|
D|--4-4-4--6-6-6-6--3-3-3--3-3-3-3--4-4-4--6-6-6-6--3--3--3-----------------|
A|--4-4-4--6-6-6-6--3-3-3--1-1-1-1--4-4-4--6-6-6-6--3--3--1-----------------|
E|--2-2-2--4-4-4-4--1-1-1-----------2-2-2--4-4-4-4--1--1--------------------|

e|--------------------------------------------------------------------------|
B|--------------------------------------------------------------------------|
G|----------8---6-----------8---10------------------------------------------|
D|--6---4---8---6---6---4---8---10------------------------------------------|
A|--6---4---6---4---6---4---6---8-------------------------------------------|
E|--4---2-----------4---2---------------------------------------------------|
You can whammy on those notes if you'd like.

e|--------------------------------------------------------------------------|
B|--------------------------------------------------------------------------|
G|-----------------------------------3-3-3-3-3-3-3-3------------------------|
D|-4-4-4-4-4-4-4-4--6-6-6-6-6-6-6-6--3-3-3-3-3-3-3-3--3-3-3-3-3-3-3-3-------|
A|-4-4-4-4-4-4-4-4--6-6-6-6-6-6-6-6--1-1-1-1-1-1-1-1--3-3-3-3-3-3-3-3-------|
E|-2-2-2-2-2-2-2-2--4-4-4-4-4-4-4-4-------------------1-1-1-1-1-1-1-1-------|

e|--------------------------------------------------------------------------|
B|--------------------------------------------------------------------------|
G|-----------------------------------3-3-3-3-3-3-3-3---3--------------------|
D|-4-4-4-4-4-4-4-4--6-6-6-6-6-6-6-6--3-3-3-3-3-3-3-3---3--------------------|
A|-4-4-4-4-4-4-4-4--6-6-6-6-6-6-6-6--1-1-1-1-1-1-1-1---1--------------------|
E|-2-2-2-2-2-2-2-2--4-4-4-4-4-4-4-4-----------------------------------------|

e|--------------------------------------------------------------------|
B|--------------------------------------------------------------------|
G|---------------------3-3--------------------------------------------|
D|--4-4-4--6-6--3-3-3--3-3---4-4-4--4-4-4--3/6--8-8-8-----------------| x2
A|--4-4-4--6-6--3-3-3--1-1---4-4-4--4-4-4--3/6--8-8-8-----------------|
E|--2-2-2--4-4--1-1-1--------2-2-2--2-2-2--1/4--6-6-6-----------------|

e|--------------------------------------------------------------------------|
B|--------------------------------------------------------------------------|
G|-------------------------3-3-3-3-------------------------3-3-3-3----------|
D|--4-4-4--6-6-6-6--3-3-3--3-3-3-3--4-4-4--6-6-6-6--3-3-3--3-3-3-3----------|
A|--4-4-4--6-6-6-6--3-3-3--1-1-1-1--4-4-4--6-6-6-6--3-3-3--1-1-1-1----------|
E|--2-2-2--4-4-4-4--1-1-1-----------2-2-2--4-4-4-4--1-1-1-------------------|

e|--------------------------------------------------------------------------|
B|--------------------------------------------------------------------------|
G|--------------------------------------------------------------------------|
D|--4-4-4--6-6-6-6--4-4-4--6-6-6-6--4-4-4--6-6-6-6--3-3-3--4----------------|
A|--4-4-4--6-6-6-6--4-4-4--6-6-6-6--4-4-4--6-6-6-6--3-3-3--4----------------|
E|--2-2-2--4-4-4-4--2-2-2--4-4-4-4--2-2-2--4-4-4-4--1-1-1--2----------------|


************************************

| /   slide up
| \   slide down
| h   hammer-on
| p   pull-off
| ~   vibrato
| +   harmonic
| x   Mute note
| b   Bend
| pb  Pre-bend
| br  Bend release
| pbr Pre-bend release
| brb Bend release bend

************************************
Tap to rate this tab
 
# A B C D E F G H I J K L M N O P Q R S T U V W X Y Z