Song name
# A B C D E F G H I J K L M N O P Q R S T U V W X Y Z

Bonnie Prince Billy - Whats Missing Is chords

Highlighted       Show chord diagrams
-----------------------------------------------------------------------------
			     WHAT’S MISSING IS – Bonnie “Prince” Billy
-----------------------------------------------------------------------------

Tabbed by: Dave


Tuning: Drop-D

Chords:
        D	      G  	   A	      Bm
e|-----2-------3------0-------2----------------------------------------------|
B|-----3-------0------2-------3----------------------------------------------|
G|-----2-------0------2-------4----------------------------------------------|
D|-----0-------0------2-------4----------------------------------------------|
A|-----0-------0------0-------2----------------------------------------------|
D|-----0-------5------x-------x----------------------------------------------|

Listen to the record for the picking pattern, or just make your own...because he doesn't 
keep a constant one.

Make sure to emphasize the bass notes while picking, especially the low D string on the 
chord.

INTRO: D  (X 4)

VERSE 1:
               G
What's missing is
               D
What's missing is
               G
What's missing is
          A
Some kind of pillow
           G
Some loving willow
           A
Some care once denied
             G
Now dissolved inside


      D  (X 4)


VERSE 2:
              G
What's plenty is
              D
What's plenty is
              G
What's plenty is
     A
One God
     G
Six tongues
     A
Five breathes
     G
Four lungs


     D  (X 4)


VERSE 3:
              G
What's rhythm is
              D
What's rhythm is
              G
What's rhythm is
                 Bm
Plenty of things missing
                   G
Steps taken, lips kissing
     A             G
New harmony on an awesome scale
              D
Meat against meat
       A
Under sail
Tap to rate this tab
# A B C D E F G H I J K L M N O P Q R S T U V W X Y Z