Song name
# A B C D E F G H I J K L M N O P Q R S T U V W X Y Z

Bonnie Prince Billy - Whipped tab

Worked roughly from a live performance - it's reasonably accurate, you get the picture 
once you start. It's then easy to vary it to find a rhythm.

I havn't put in the verse lyrics, but you can listen and get those yourself. The chorus 
ones may be a bit off.



Tuning:

1&1/2 steps down (C#,f#,b,e,g#,c#)



Chords used [brackets show standard tuning bar chords shapes]:

   [E]     [B]     [f#]    [c#]
    c#      g#      d#      a#

|---0---|---2---|---2---|---4---|
|---0---|---4---|---2---|---5---|
|---1---|---4---|---3---|---6---|
|---2---|---4---|---4---|---6---|
|---2---|---2---|---4---|---4---|
|---0---|---2---|---2---|---4---|


Verse (picked part of song):
   d#         c#          d#           c#
|--------0-----------------------0-------------------|
|----0-2---2---0-------------0-2---2---0-------------|
|------------3-1-1---1-1-0-----------3-1-1---1-1-0---|
|--4-----------2---2-------4-----------2---2-------4-|
|--------------2-----------------------2-------------|
|----------------------------------------------------|




Chorus:

c#       g#
          It's my pleasure,

              d#
          Oh my treasure,

                           a#          c#
          It's the opening that I.........,

         c#
          Had so dreamed for,

                 g#
         Sometimes screamed for,

                         a#           c#
         I was as i like to die..........,

                    d#
         and then i found her,

                  c#
         and now i hound her,

            a#              c#
         To get mine fully lips,

                g#
         I'm in love, love,

                   d#
         and i am absolutely........,

         c#
         Whipped




Then repeat verse picking:

   d#         c#          d#           c#
|--------0-----------------------0-------------------|
|----0-2---2---0-------------0-2---2---0-------------|
|------------3-1-1---1-1-0-----------3-1-1---1-1-0---|
|--4-----------2---2-------4-----------2---2-------4-|
|--------------2-----------------------2-------------|
|----------------------------------------------------|


Hope that helps.
Tap to rate this tab
 
# A B C D E F G H I J K L M N O P Q R S T U V W X Y Z