Song name
# A B C D E F G H I J K L M N O P Q R S T U V W X Y Z

Bonnie Prince Billy - Blood Embrace tab

hey fellow american, here is a rudimentary tab for "blood embrace".  there is basically 
riff in the whole song, with variations.

basic guitar part for

blood embrace

by matt sweeney and bonnie "prince" billy

e|--------3-0-2---0---------------|
B|--------------3---0-3---0-------|
G|----------------------2---2-0-2-|
D|--------------------------------|
A|--------------------------------|
E|0---0---------------------------|

e|--------3-0-2---0---------------|
B|--------------3---0-3---0-------|
G|----------------------2---2-0---|
D|------------------------------2-|
A|0---0---------------------------|
E|--------------------------------|

repeate and variate for seven and a half minutes.

www.bonnieprincebilly.com
Tap to rate this tab
# A B C D E F G H I J K L M N O P Q R S T U V W X Y Z