Song name
# A B C D E F G H I J K L M N O P Q R S T U V W X Y Z

Bonnie Raitt - I Cant Make You Love Me tab

hey guys so this is my first tab but it sounds pretty good to me! any corrections let me 
know at summerangel101@yahoo.com


E|--9--7----------------------------------------------9--7----------------------------------------|
B|--------9--7--7--9--5--2--2--5--12--12--9--7--5--7--------9--7--7--9--5--2--2--5--12--12--9--7--|
G|------------------------------------------------------------------------------------------------|
D|------------------------------------------------------------------------------------------------|
A|------------------------------------------------------------------------------------------------|
E|------------------------------------------------------------------------------------------------|



E|-----------------------12--11--9--7--7--------------12--11--9--7--7----------------9--12--11--7--|
B|--5--7--9--7--5--9--7-------------------9--9--7--5-------------------9--9--12--12----------------|
G|-------------------------------------------------------------------------------------------------|
D|-------------------------------------------------------------------------------------------------|
A|-------------------------------------------------------------------------------------------------|
E|-------------------------------------------------------------------------------------------------|



E|--------9--7--7--------9--11--12--11--7--------9--7--7-----------------9--------9--11--12--11--|
B|--9--5-----------9--7--------------------9--5-----------9--7--5--9--7-----9--7-----------------|
G|-----------------------------------------------------------------------------------------------|
D|-----------------------------------------------------------------------------------------------|
A|-----------------------------------------------------------------------------------------------|
E|-----------------------------------------------------------------------------------------------|



E|--7--------------|
B|-----9--5--9--9--|
G|-----------------|
D|-----------------|
A|-----------------|
E|-----------------|
Tap to rate this tab
 
# A B C D E F G H I J K L M N O P Q R S T U V W X Y Z