Song name
# A B C D E F G H I J K L M N O P Q R S T U V W X Y Z

Bonnie Raitt - I Cant Make You Love Me tab

Awesome cover of the original Bonnie Raitt song. Credit to apt103ab for giving an online
tutorial of the guitarist's interpretation on Youtube.

Intro:

e|---------------------------------0--0-7-7/11--12------14--14h16--14------11-|
B|--7h9--7--4--2----2-2------------0--0---------------------------------------|
G|--8----8---------3--3--3--5/7--7-6--6---------------------------------------|
D|--9----9--------4---4------------6--6---------------------------------------|
A|---------------------------------7--7---------------------------------------|
E|---------------------------------0--0-------------14-----------------11--11-|

e|----------|
B|----------|
G|----------|
D|----------|
A|----------|
E|--9-------|

Verse:

                                  E         E        D#m      D#m

e|------------0---------0---------0---------0---------6--------6-|
B|--7h9--7----0---------0---------0---------0---------7--------7-|
G|--8----8----4---------4---------1---------1---------8--------8-|
D|--9----9----2---------2---------2---------2---------8--------8-|
A|------------4---------4---------2---------2---------6--------6-|
E|------------0---------0---------0---------0---------6--------6-|

Turn down the lights. Turn down the bed. Turn down these voices,

                                     E        E       D#m

e|--0----4------------------0--------0--------0--------6--------6-|
B|--0----5--------7h9--7----0--------0--------0--------7--------7-|
G|--3----6--------8----8----4--------1--------1--------8--------8-|
D|--4----6--------9----9----2--------2--------2--------8--------8-|
A|--4----4------------------4--------2--------2--------6--------6-|
E|--0----4------------------0--------0--------0--------6--------6-|

  Inside my head. Lay down with me. Tell me no lies. Just hold me close,


e|--0----4--------0--------0--------0--|
B|--0----5--------2--------2--------2--|
G|--3----6--------4--------3--------3--|
D|--4----6--------4--------4--------4--|
A|--4----4--------0--------0--------0--|
E|--0----4--------0--------0--------0--|

Don't patronise. Don't patronise me.

Chorus:

          E       D#m       E        E                 B

e|--------0--------6--------0--------0--------7--------7-|
B|--------0--------7--------0--------0--------7--------7-|
G|--------1--------8--------1--------1--------9--------8-|
D|--------2--------8--------2--------2--------9--------9-|
A|--------2--------6--------2--------2--------7--------9-|
E|--------0--------6--------0--------0--------7--------7-|

I can't make you love me if you don't. You can't make your heart feel

                                E       D#m

e|--0--------0----0----0--------0--------6--------0-|
B|--0--------5----7----0--------0--------7--------0-|
G|--3--------4----6----3--------1--------8--------3-|
D|--4--------6----8----4--------2--------8--------4-|
A|--4--------0----0----4--------2--------6--------4-|
E|--0--------0----0----0--------0--------8--------0-|

something it won't. Here in the dark in these final hours

          E       D#m

e|--------0--------6--------0--------0--------0---------0--------2-|
B|--------0--------7--------0--------0--------0---------0--------2-|
G|--------1--------8--------3--------3--------4---------4--------3-|
D|--------2--------8--------4--------4--------2---------3--------4-|
A|--------2--------6--------4--------4--------4---------4--------4-|
E|--------0--------8--------0--------0--------3---------3--------2-|

I will lay down my heart. I'll feel the power but you won't no you won't

          E       D#m       E        E

e|--------0--------6--------0--------0--|
B|--------0--------7--------0--------0--|
G|--------1--------8--------1--------1--|
D|--------2--------8--------2--------2--|
A|--------2--------6--------2--------2--|
E|--------0--------6--------0--------0--|

I can't make you love me if you don't.


The verses and choruses just repeat themselves after this. Hope the majority was right. 
Enjoy playing!
Tap to rate this tab
# A B C D E F G H I J K L M N O P Q R S T U V W X Y Z