Song name
# A B C D E F G H I J K L M N O P Q R S T U V W X Y Z

Bonnie Somerville - Winding Road tab

Winding Road, by Bonnie Somerville (Garden State soundtrack)

Simple picking pattern.  Played after first verse and in the background during various other parts.

e |-----5-----5-----|-----4-----4-----|
B |---5---5-----5---|---5---5-----5---|
G |-----------------|-----------------|
D |-7-------7-----7-|-7-------7-----7-|
A |-----------------|-----------------|
E |-----------------|-----------------|

e |-----5-----5-----|-----5-----4-----|
B |---5---5-----5---|-------------5---|
G |-----------------|---7---7---------|
D |-7-------7-----7-|-7-------7-----7-|
A |-----------------|-----------------|
E |-----------------|-----------------|
Tap to rate this tab
# A B C D E F G H I J K L M N O P Q R S T U V W X Y Z