Song name
# A B C D E F G H I J K L M N O P Q R S T U V W X Y Z

Bonnie Tyler - Its A Heartache tab

Hi all!

Till now it doesn't exist, here it is...
Very simple like the song as it is





   E   E   E   E   E   E   E   E      E   E   E   E   E   E   E   E   
-------------------------------------|--------------------------------------|
-----------------------------17--18--|--20--20~~--22--20--18--17--18~-18~~--|
--19b--19b--17~-17~--17--19----------|--------------------------------------|
-------------------------------------|--------------------------------------|
-------------------------------------|--------------------------------------|
-------------------------------------|--------------------------------------|


   E   E   E   E   E   E   E   E          
-------------------------------------|-----||
--20--18--17------17--17h18p17-------|-----||
--------------19---------------19~~--|-----||
-------------------------------------|-----||
-------------------------------------|-----||
-------------------------------------|-----||


Tap to rate this tab
 
# A B C D E F G H I J K L M N O P Q R S T U V W X Y Z