Song name
# A B C D E F G H I J K L M N O P Q R S T U V W X Y Z

Bonobo - Nothing Owed tab

-----------------------------------------------------------------------------
			     Nothing Owed - Bonobo
-----------------------------------------------------------------------------
Tabbed by: crimsoid
Email: crimsoid@wp.pl

It's live version taken from "Bonobo - Live Sessions" 


e|--------------------2------------------------------------------------------|
B|------3------3-2---3---3p2-----3-------2------------3/7-10-8-7-------------|
G|-----4-----(4)----4--------4----4-----4---4--------------------------------|
D|----4--------------------------------4-----4-------------------------------|
A|--2-------------2------------------2--------------2------------------------|
E|---------2------------------2------------------2-3-------------------------|


e|--------------------2------------------------------------------------------|
B|------3------3-2---3---3p2-----3-------2------------3/7-10-8-7-------------|
G|-----4-----(4)----4--------4----4-----4---4--------------------------------|
D|----4--------------------------------4-----4-------------------------------|
A|--2-------------2------------------2--------------2------------------------|
E|---------2------------------2------------------2-3-------------------------|


e|--------------------2------------------------------------------------------|
B|------3------3-2---3---3p2-----3-------2------------3/7-10-8-7-------------|
G|-----4-----(4)----4--------4----4-----4---4--------------------------------|
D|----4--------------------------------4-----4-------------------------------|
A|--2-------------2------------------2--------------2------------------------|
E|---------2------------------2------------------2-3-------------------------|

e|--------------------2------------------------------------------------------|
B|------3------3-2---3---3p2-----3-------2-------------3-2-------------------|
G|-----4-----(4)----4--------4----4-----4---4--------------------------------|
D|----4--------------------------------4-----4-----2-------------------------|
A|--2-------------2------------------2------------2--------------------------|
E|---------2------------------2----------------2-3---2-----------------------|

guitar 'solo' :)

e|----9/5-5/2-1h2-1/2-------------------------------------------------------|
B|--7-----------------------------------------------------------------------|
G|--------------------------------------------------------------------------|
D|--------------------------------------------------------------------------|
A|--------------------------------------------------------------------------|
E|--------------------------------------------------------------------------|


crimsoid@wp.pl 29.04.2008

| /  slide up
| \  slide down
| h  hammer-on
| p  pull-off
| ~  vibrato
| +  harmonic
| x  Mute note
===============================================================================
Tap to rate this tab
# A B C D E F G H I J K L M N O P Q R S T U V W X Y Z