Song name
# A B C D E F G H I J K L M N O P Q R S T U V W X Y Z

Bonobo - Kong tab

E---------------------|------------------|--------------------|
B-----10--12-12-11----|----10--12--12----|---10---12--12-11---|
G--11--------------13-|-11---------------|-11--------------13-|
D---------------------|------------------|--------------------|
A---------------------|------------------|--------------------|
E---------------------|------------------|--------------------|

E-----------------------|
B----10----10--12---10--|
G-11----13--------------|
D-----------------------|
A-----------------------|
E-----------------------|
Tap to rate this tab
 
# A B C D E F G H I J K L M N O P Q R S T U V W X Y Z