Song name
# A B C D E F G H I J K L M N O P Q R S T U V W X Y Z

Bonobo - Stay The Same tab

-------------------------------------------------------------------------------
			     STAY THE SAME - Bonobo ft. Andreya Triana
-------------------------------------------------------------------------------
Tabbed by: hazzav

Tuning: Standard

Great song, here's the main riff.  There are other guitar parts, but they are played separately.

MAIN RIFF

e|-------------------------------------------------------|
B|-------------------------------------------------------|
G|------13------------9----------------------------------|
D|--11------11----13-----13--------13------------16------|
A|-----------------------------11------11----14------14--|
E|-------------------------------------------------------|



e|-------------------------------------------------------|
B|-------------------------------------------------------|
G|------13------------9----------------------------------|
D|--11------11----13-----13--------13--------16--13------|
A|-----------------------------11------11----14------11--|
E|-------------------------------------------------------|

OR Where 

e|-------------|
B|-------------|
G|------9------|
D|--13-----13--|
A|-------------|
E|-------------|

is too far to reach, do try this:

e|--------------------------------------------------------|
B|--------------------------------------------------------|
G|------13------------------------------------------------|
D|--11------11----13--14--13--------13------------16------|
A|------------------------------11------11----14------14--|
E|--------------------------------------------------------|



e|--------------------------------------------------------|
B|--------------------------------------------------------|
G|------13------------------------------------------------|
D|--11------11----13--14--13--------13--------16--13------|
A|------------------------------11------11----14------11--|
E|--------------------------------------------------------|
Tap to rate this tab
# A B C D E F G H I J K L M N O P Q R S T U V W X Y Z