Song name
# A B C D E F G H I J K L M N O P Q R S T U V W X Y Z

Bonzo Dog Doo Dah Band - Canyons Of Your Mind tab

Canyons Of Your Mind
Bonzo Dog Doo Dah Band
Best Of The Bonzos 1970


This song has me in stitches.
Especially the solo.



    Bb Eb Bb

              This is the B - Side of our platter sports fans
    Bb Eb Bb
              And I'm singing, just for you, covered in sequins.

             Bb Eb Bb                         Bb  Eb Bb
                      In the canyons of your mind
                                               F7
                    I will wander through your brain
                                             Cm        F7
                  To the ventricles of your heart, my dear
                                              Bb  Eb  Bb
                        I'm in love with you again
                                                   Eb  
                     Across the mountains of your chest
                      (Bah Bah Bah Bah Bah Bah Bah Bah)
                                                Bb
                          I will stick a Union Jack
                                                C7    F7
                         To the forest of your cheek
                                                       Bb  Eb  Bb
                     Through the holes in your string vest



SOLO    
E|-/8--6--------------------------\8--6-----------------------|
B|-------8-6----------------------------8-6-------------------|
G|-----------8-6-6b*-6b*-6b*----------------8-6-------------0-|
D|----------------------------------------------x-8-8-8-8-8-0-|
A|------------------------------------------------------------|
E|------------------------------------------------------------|
*Bend Inaccurately


E|-----------x-|
B|---------x---|
G|-------x-----|
D|-6-8-x-------|
A|-------------|
E|-------------| 
- it doesn't really matter what you do after this, 
it can't get any worse...

That's about it.




http://www.bonzodog.co.uk/
Tap to rate this tab
# A B C D E F G H I J K L M N O P Q R S T U V W X Y Z