Song name
# A B C D E F G H I J K L M N O P Q R S T U V W X Y Z

Boo Radleys - I Hang Suspended tab

From: casu@ens.lifl.fr
Date: Wed, 13 Dec 95 12:44:19 +0100



I Hang Suspended
		by The BOO RADLEYS

Chorus :

   A       Bm      F#    F       C             E

-------------2-----------------------------0-----------------------
-------5---3---3-1---3-1---------------------0---------------------
---3/5---5-----------------------------0-----------0-----0-----0---
-------------------4-----3-3-------0h2---2-----0h2---0h2---0h2-----
-----------------------------0-2-3---------------------------------
-------------------------------------------------------------------


   A       Bm      F#    F       C             E

-------------2-----------------------------0-----------------------
-------5---3---3-1---3-1---1-------------1---0---------------------
---3/5---5-----------------------------0-----------0-----0-----0---
-------------------4-----3---------0h2---------0h2---0h2---0h2-----
-----------------------------0-2-3---------------------------------
-------------------------------------------------------------------
                                                Ain't that just........

===
BOO Up !

Alain
Tap to rate this tab
# A B C D E F G H I J K L M N O P Q R S T U V W X Y Z