Song name
# A B C D E F G H I J K L M N O P Q R S T U V W X Y Z

Boocray - Nothing To Do tab

Artist: BooCray
Song: Nothing To Do
Tabbed By:Karson
Website: www.boocray.net
Key:
h= hammer
*= palm mute
/= bend all bends are half steps
Intro: x6 (no distortion)
|------------------------------|
|------------------------------|
|----6h7-----6h7-----6---------|
|5-5---------------------------|
|--------5-5-------------------|
|----------------5-5---5--5-5-5|

Chorus: (distortion starts)
|-------------------------------
|-------------------------------
|-7-7-/6-----/6-----6-----------
|-7-7----7-7----9-9---5--5-5-5--
|-5-5----7-7----9-9---5--5-5-5--
|--------5-5----7-7---3--3-3-3--

Riff: x2
|-----------------------------------
|-----------------------------------
|77777777---------------------------
|55555555-55555555-99999999-77777777
|55555555-55555555-99999999-77777777
Riff2: x2
|-----------------------------------
|-----------------------------------
|77777777---------------------------
|55555555 55555555-99999999-77777777
|---------33333333-77777777-55555555
|---------33333333-77777777-55555555
  
Introlude
|-------------------------
|-------------------------
|-77----------------------
|-55-55-9999999977777777--
|-55-55-9999999977777777--
|----33-7777777755555555--

End:x1 (no distortion)
|--------------------------------------------------|
|--------------------------------------------------|
|77-6h7----6h7---6--------------6h7-----6h7-----6--|
|77-----77----99---5--5-5-5-5-5--------------------|
|55-----77----99---5--5-5-5---------5-5-----------2|
|-------55----77---3--3-3-3-----------------5-5---3| let it ring!
 Song Order
Intro x6
Chorus x4
Riff 1 x2
Riff 2 x2
Chorus x6
Interlude x2
Riff 1 x2
Riff 2 x2
Chorus x4
End x1
Tap to rate this tab
 
# A B C D E F G H I J K L M N O P Q R S T U V W X Y Z