Song name
# A B C D E F G H I J K L M N O P Q R S T U V W X Y Z

Booker T And The Mgs - Be My Lady tab

-----------------------------------------------------------
             Booker T and the MG's- Be My Lady
-----------------------------------------------------------
Bassist- Donald "Duck" Dunn
TABBED BY- RYAN
EMAIL ME AT: ryanwrightiscool@yahoo.com for questions,comments, or for more tabs. i got 
that i have not posted.

Standard tuning

PLease listen to the song to get an idea of how the bassline goes.
Intro

G--------------|
D--------------|
A--3456--------|
E--------------|

       PLAY QUICK
           \/
part 1
G-----------------------------------------------------|
D---------64--46--------------------------------------|
A-----------6-----2-2-3456----------------------------|
E---4-4-----------------------------------------------|

part 2
G---------64--46--------------------------------------|
D-----------6-----2-2-3456----------------------------|
A---4-4-----------------------------------------------|
E-----------------------------------------------------|

part 3
G----------------------------------------------------|
D------------------------------------------8-8-8-8---|
A---2-22-22-22----------------------------6---6---6--|
E--------------22-22-22-22-00-00-00-00---------------|

part 4 H= hammer on
G--------------------------------------------------|
D--------------------------------------------------|
A---4h542-4h5-42-----------------------------------|
E---------------4----------------------------------|
Tap to rate this tab
 
# A B C D E F G H I J K L M N O P Q R S T U V W X Y Z