Song name
# A B C D E F G H I J K L M N O P Q R S T U V W X Y Z

Boondox - Cold Cruel World tab

----------------------------------------------------------------------------
	                  Cold Cruel World - Boondox
----------------------------------------------------------------------------
Tabbed by: Garrett Padilla
Email: soldiers.of.filth@gmail.com

Tuning: Standard

e|-------------------------------------------------------------------------|
B|---0---0---0---0---0---0---0---0-----------------------------------------|
G|-----0-------0-------0-------0-----0---0---0---0-----0-------0-----------|
D|-2-------2-------2-------2-----------4-------4-----4---4---4---4---------|
A|---------------------------------2-------2-------2-------2---------------|
E|-------------------------------------------------------------------------|

Let all ring

************************************

| /   slide up
| \   slide down
| h   hammer-on
| p   pull-off
| ~   vibrato
| +   harmonic
| x   Mute note
| b   Bend
| pb  Pre-bend
| br  Bend release
| pbr Pre-bend release
| brb Bend release bend

************************************

http://boondox.psychopathicrecords.com/
http://www.myspace.com/boondox
Tap to rate this tab
 
# A B C D E F G H I J K L M N O P Q R S T U V W X Y Z