Song name
# A B C D E F G H I J K L M N O P Q R S T U V W X Y Z

Boondox - We All Fall tab

----------------------------------------------------------------------------
	                     We All Fall - Boondox
----------------------------------------------------------------------------
Tabbed by: Garrett Padilla
Email: soldiers.of.filth@gmail.com

Tuning: Standard

Main Riff (Transcribed for guitar)

e|-------0-----------0-----------0-----------0------|
B|-----0---0-------0---0-------0---0-------0---0----|
G|--------------------------------------------------|
D|---6-------6---6-------6---6-------6---6-------6--|
A|-7-----------6-----------4-----------4------------|
E|--------------------------------------------------|

Verse Guitar Riff

e|------------------------------------------------|
B|------------------------------------------------|
G|------------------------------------------------|
D|-----2---2-1---1-------------2---2-1---1--------|
A|-2h4-------------4---4---2h4-------------4---4--|
E|------------------------------------------------|

Repeat through whole song

South Of Hell - MAY 11, 2010

************************************

| /   slide up
| \   slide down
| h   hammer-on
| p   pull-off
| ~   vibrato
| +   harmonic
| x   Mute note
| b   Bend
| pb  Pre-bend
| br  Bend release
| pbr Pre-bend release
| brb Bend release bend

************************************

http://boondox.psychopathicrecords.com/
http://www.myspace.com/boondox
Tap to rate this tab
 
# A B C D E F G H I J K L M N O P Q R S T U V W X Y Z