Song name
# A B C D E F G H I J K L M N O P Q R S T U V W X Y Z

Booze And Glory - Always On The Wrong Side tab

Booze & Glory
- Always On The Wrong Side 
--------------------------------------------------------------

Intro 
e|---------------------------------------------------------------------|
B|---------------------------------------------------------------------|
G|--------------------------------4-4-454-44-4-454-44-4-454--4---------|
D|--------------------5-7-5--55-7--------7--------7--------7---5-------|
A|----2-3-5--5-7-5-7---------------------------------------------------|
E|-3-------------------------------------------------------------------|

Bridge
e|---------------------------------------------------------------------|
B|---------------------------------------------------------------------|
G|---------------------------------------------------------------------|
D|---------------------------------------------------------------------|
A|----2-3-5--5-7-5-7--7-5-3--3-3-2----2-3-5--5-7-5-7--7-5-3--3-3-2-----|
E|-3-------------------------------3-----------------------------------|

Verse
G  D  Em  C

Chorus
G  D  C  D

 Song Order
------------
Intro (1x)
Verse (2x)
Chorus(2x)
Bridge(1x)
Verse (2x)
Chorus(2x)
Bridge(1x)
Verse (2x)
Chorus(2x)
Intro (1x)
Chorus(2x)
Tap to rate this tab
# A B C D E F G H I J K L M N O P Q R S T U V W X Y Z