Bored Youth - Youth Culture tab

Bored Youth - Youth culture

Verse:

e------------------------------------------|
B------------------------------------------|
G------------------------------------------|
D--55--77--9999----------------------------|
A--33--55--7777--99999999------------------|
E----------------77777777------------------|


Chorus:

e----------------------------------|
B----------------------------------|
G----------------------------------|
D----------------55--77--9999------|
A--55--77--9999--33--55--7777------|
E--33--55--7777--------------------|

Order:

Verse x4
Chorus x3
Verse x4
Chorus x3


Stay Punk!
Tap to rate this tab
 
# A B C D E F G H I J K L M N O P Q R S T U V W X Y Z