Song name
# A B C D E F G H I J K L M N O P Q R S T U V W X Y Z

Borialis - Mightier Than The Sword tab

Borialis - Mightier Than The Sword

Standard tuning

I saw no tabs for this, so I decided "Eh, what the hell" and did it. First tab, I
know there's mistakes. Enjoy c:

**Tabbed by Mr. Jasper Worsnop c;****



 Intro (0:00 - 0:03)
E|--------------------------------------|
B|--------------------------------------|
G|--------------------------------------|
D|--------------------------------------|
A|--------------------------------------|
E|--0--3--3--0--3--3--0--3--3--0--3--3--|



Verse (0:03 - 0:49)
E|-----------------------------------------------|
B|-----------------------------------------------|
G|-----------------------------------------------|
D|-----------------------------------------------|
A|-----------------------------------------------|
E|--0--5--5--3--0--3--0--5--5--0--3--3--0--3--3--|



 Intro (0:50)
E|--------------------------------------|
B|--------------------------------------|
G|--------------------------------------|
D|--------------------------------------|
A|--------------------------------------|
E|--0--3--3--0--3--3--0--3--3--0--3--3--|



  Chorus (0:50 - 1:16)
E|----------------------------------------|
B|----------------------------------------|
G|----------------------------------------|
D|----------------------------------------|
A|----------3h5----------------------3----|
E|--3--3h5-------3--5--0--0--5--0--5------|



 Verse (1:17 - 1:53)
E|-----------------------------------------------|
B|-----------------------------------------------|
G|-----------------------------------------------|
D|-----------------------------------------------|
A|-----------------------------------------------|
E|--0--5--5--3--0--3--0--5--5--0--3--3--0--3--3--|


 Intro (1:54)
E|--------------------------------------|
B|--------------------------------------|
G|--------------------------------------|
D|--------------------------------------|
A|--------------------------------------|
E|--0--3--3--0--3--3--0--3--3--0--3--3--|


 Chorus (1:55 - 2:18)
E|----------------------------------------|
B|----------------------------------------|
G|----------------------------------------|
D|----------------------------------------|
A|----------3h5----------------------3----|
E|--3--3h5-------3--5--0--0--5--0--5------|


 Verse (2:19 - 2:56)
E|-----------------------------------------------|
B|-----------------------------------------------|
G|-----------------------------------------------|
D|-----------------------------------------------|
A|-----------------------------------------------|
E|--0--5--5--3--0--3--0--5--5--0--3--3--0--3--3--|


 Intro (2:57)
E|--------------------------------------|
B|--------------------------------------|
G|--------------------------------------|
D|--------------------------------------|
A|--------------------------------------|
E|--0--3--3--0--3--3--0--3--3--0--3--3--|



Chorus (2:58 - 3:38)
E|----------------------------------------|
B|----------------------------------------|
G|----------------------------------------|
D|----------------------------------------|
A|----------3h5----------------------3----|
E|--3--3h5-------3--5--0--0--5--0--5------|
Tap to rate this tab
# A B C D E F G H I J K L M N O P Q R S T U V W X Y Z