Song name
# A B C D E F G H I J K L M N O P Q R S T U V W X Y Z

Borialis - Dont Mean A Thing tab

The song consists of two simple figures.
Figure out by yourself when to play each of them -
it isn't hard at all, really. :)

Figure.01
e|---------------------------------------|
B|---------------------------------------|
G|---------------------------------------|
D|-8-8--7----8-8--7----8-8--7----8-8--10-|
A|-8-8--7----8-8--7----8-8--7----8-8--10-|
D|-8-8--7----8-8--7----8-8--7----8-8--10-|

Figure.02
e|-------------------------------|
B|-------------------------------|
G|-7-7--5-5----------------------|
D|-7-7--5-5--7----7--5-7-8-8--10-|
A|-5-5--3-3--7----7--5-7-8-8--10-|
D|-----------7----7--5p7-8-8--10-|



The hardest to figure out part of the song,
the solo. It starts in about 2:05, and continues
through 2:23.
e|---------------------------------------|
B|---------------------------------------|
G|---------------------------------------|
D|---------------------------------------|
A|---------------------------------------|
D|-7-7--7-5p7-7--5-7p8-8--8-7-8-8--10-12-|

e|-----------------------------------------------|
B|-----------------------------------------------|
G|-----------------------------------------------|
D|-----------------------------------------------|
A|-----------------------------------------------|
D|-7-7--7-5p7-7--5-7p8-8--8-7-8-8--12h8h12-12-10-|

e|---------------------------------------|
B|---------------------------------------|
G|---------------------------------------|
D|-7-7--7-5-7-7--5-7-8-8--8-7-8-8--10-12-|
A|-x-x--x-x-x-x--x-x-x-x--x-x-x-x--x--x--|
D|-7-7--7-5p7-7--5-7p8-8--8-7-8-8--10-12-|

e|-----------------------------------------------|
B|-----------------------------------------------|
G|-----------------------------------------------|
D|-7-7--7-5-7-7--5-7-8-8--8-7-8-8--12-8-12-12-10-|
A|-x-x--x-x-x-x--x-x-x-x--x-x-x-x--x--x-x--x--x--|
D|-7-7--7-5p7-7--5-7p8-8--8-7-8-8--12h8h12-12-10-|
Tap to rate this tab
# A B C D E F G H I J K L M N O P Q R S T U V W X Y Z