Guitaretab - guitar tabs
Song name
# A B C D E F G H I J K L M N O P Q R S T U V W X Y Z

Borialis - Toughen The Bones tab

Intro:
E----------8------8-------7------7------5----4----|
B--------10-----10------8------8------6----5------|
G-------9------9------7------7------5----4--------|  2x
D-------------------------------------------------|
A-------------------------------------------------|
E-------------------------------------------------|
[ Tab from: http://www.guitaretab.com/b/borialis/49845.html ]
Verse & Chorus:
E----------8--------------7-------------5----4----|
B--------10-------------8-------------6----5------|
G-------9-------------7-------------5----4--------|
D-------------------------------------------------|
A-------------------------------------------------|
E-------------------------------------------------|

Let it be known that this is my first tab, so please be kind and send any
comments to suspcion88@comcast.net
Related for Toughen The Bones tab
Advertisement will be closed in 10 seconds