Guitaretab - guitar tabs
Song name
# A B C D E F G H I J K L M N O P Q R S T U V W X Y Z

Boris - Flood Part Iii tab

-------------------------------------------------------------------------------
			     Boris - Flood Part 3
-------------------------------------------------------------------------------
Tabbed by: David K
Email: thischarmingman13@gmail.com

Tuning: Standard

This part might be wrong. Sounds good to me. There are variations I couldn't catch.
e|---------------------------------------------------------------------------|
B|----6-6-6-----4-4----------------------------------------------------------|
G|---8-8-8-----3-3-3---------------------------------------------------------|
D|--6---------5--------------------------------------------------------------|
A|---------------------------------------------------------------------------|
E|---------------------------------------------------------------------------|
[ Tab from: http://www.guitaretab.com/b/boris/186184.html ]
The last bit after these chords is only played once, at the end of the measure.
e|---------------------------------------------------------------------------|
B|---------------------------------------------------------------------------|
G|---7-8-10------------------------------------------------------------------|
D|-8-7-8-10-8-8--------------------------------------------------------------|
A|-8-5-6-8---8---------------------------------------------------------------|
E|-6-------------------------------------------------------------------------|

This part repeats. A lot.
e|---------------------------------------------------------------------------|
B|---------------------------------------------------------------------------|
G|---------------------------------------------------------------------------|
D|-12-13--10-12-8------------------------------------------------------------|
A|-12-13--10-12-8------------------------------------------------------------|
E|-10-11--8--10-6------------------------------------------------------------|


| /  slide up
| \  slide down
| h  hammer-on
| p  pull-off
| ~  vibrato
| +  harmonic
| x  Mute note
===============================================================================
Related for Flood Part Iii tab