Guitaretab - guitar tabs
Song name
# A B C D E F G H I J K L M N O P Q R S T U V W X Y Z

Born From Pain - Iron Will tab

-------------------------------------------------------------------------------
			Iron Will - Born From Pain
-------------------------------------------------------------------------------

ARTIST   : Born From Pain
SONG     : Iron Will
ALBUM    : War
TABBED BY: h8urlife
TUNING   : Standard  C# G# C# F# A# D#






Intro and Verse: 
                               
D#|-------------------------------------------------------------------------|
A#|-------------------------------------------------------------------------|
F#|-------------------------------------------------------------------------|
C#|------------------------------6---3-----------------4------------3-6-7---| 
G#|--------2--------3--------2---4---1--------2--------2--------4---1-4-5---|
C#|-000000-0-000000-1-000000-0-0---0---000000-0-000000---000000-2-0---------|
    ......   ......   ......   .   .   ......   ......   ......   .        

Verse:

D#|-------------------------------------------------------------------------|
A#|-------------------------------------------------------------------------|
F#|-------------------------------------------------------------------------|
C#|------------------------------6---3-----------------4------------3-6-7---| 
G#|--------2--------3--------2---4---1--------2--------2--------4---1-4-5---|
C#|-000000-0-000000-1-000000-0-0---0---000000-0-000000---000000-2-0---------|
    ......   ......   ......   .   .   ......   ......   ......   .  



D#|-------------------------------------------|
A#|-------------------------------------------|
F#|-------------------------------------------|
C#|-4-------------2/3\2~------4---7-----------| 
G#|-2---5--4--2-----------6---2---5--5---5-4--|
C#|-----3--2--0-----------4----------3---3-2--|
     




Chorus:

D#|-------------------------------------------------------------|
A#|-------------------------------------------------------------|
F#|-------------------------------------------------------------|
C#|-------------------------------------------------------------| 
G#|---6---6---6---6---6---6---6---6---6---6---6---6---4---4---4-|
C#|-0-4-0-4-0-4-0-4-0-4-0-4-0-4-0-4-0-4-0-4-0-4-0-4-0-2-0-2-0-2-|
    .   .   .   .   .   .   .   .   .   .   .   .   .   .   .  

D#|-------------------------------------------------------------|
A#|-------------------------------------------------------------|
F#|-------------------------------------------------------------|
C#|----------8--8--6--6--4--4--3--3--4--4-----------------------| 
G#|-2-2---2--6--6--4--4--2--2--1--1--2--2---2-2---2-------------|
C#|-0-0-0-0---------------------------------0-0-0-0-------------|
        .                                       .    
     



Verse:

D#|-------------------------------------------------------------------------|
A#|-------------------------------------------------------------------------|
F#|-------------------------------------------------------------------------|
C#|------------------------------6---3-----------------4------------3-6-7---| 
G#|--------2--------3--------2---4---1--------2--------2--------4---1-4-5---|
C#|-000000-0-000000-1-000000-0-0---0---000000-0-000000---000000-2-0---------|
    ......   ......   ......   .   .   ......   ......   ......   .



D#|-------------------------------------------|
A#|-------------------------------------------|
F#|-------------------------------------------|
C#|-4-------------2/3\2~------4---7-----------| 
G#|-2---5--4--2-----------6---2---5--5---5-4--|
C#|-----3--2--0-----------4----------3---3-2--|





Chorus:
[ Tab from: http://www.guitaretab.com/b/born-from-pain/192804.html ]
D#|-------------------------------------------------------------|
A#|-------------------------------------------------------------|
F#|-------------------------------------------------------------|
C#|-------------------------------------------------------------| 
G#|---6---6---6---6---6---6---6---6---6---6---6---6---4---4---4-|
C#|-0-4-0-4-0-4-0-4-0-4-0-4-0-4-0-4-0-4-0-4-0-4-0-4-0-2-0-2-0-2-|
    .   .   .   .   .   .   .   .   .   .   .   .   .   .   .  

D#|-------------------------------------------------------------|
A#|-------------------------------------------------------------|
F#|-------------------------------------------------------------|
C#|----------8--8--6--6--4--4--3--3--4--4-----------------------| 
G#|-2-2---2--6--6--4--4--2--2--1--1--2--2---2-2---2-------------|
C#|-0-0-0-0---------------------------------0-0-0-0-------------|
        .                                       .

                  

                   

Breakdown:

D#|-------------------------------------------------------------|
A#|-------------------------------------------------------------|
F#|-------------------------------------------------------------|
C#|-------------------------------------------------------------| 
G#|-4-4-6-------------------------4-4-6-------------------------|
C#|-2-2-4-4-4-4-4-4-4-4-4-4-4-4-4-2-2-4-4-4-4-4-4-4-4-4-4-4-4-4-|
          . . . . . . . . . . . .       . . . . . . . . . . . . 

D#|-------------------------------------------------------------|
A#|-------------------------------------------------------------|
F#|-------------------------------------------------------------|
C#|-------------------------------8-8---------------------------| 
G#|-4-4-2-------------------------6-6-2-------------------------|
C#|-2-2-0-0-0-0-0-0-0-0-0-0-0-0-0-----0-0-0-0-0-0-0-0-0-0-0-0-0-|
          . . . . . . . . . . . .       . . . . . . . . . . . .       


     

Verse:

D#|-------------------------------------------------------------------------|
A#|-------------------------------------------------------------------------|
F#|-------------------------------------------------------------------------|
C#|------------------------------6---3-----------------4------------3-6-7---| 
G#|--------2--------3--------2---4---1--------2--------2--------4---1-4-5---|
C#|-000000-0-000000-1-000000-0-0---0---000000-0-000000---000000-2-0---------|
    ......   ......   ......   .   .   ......   ......   ......   .




D#|-------------------------------------------|
A#|-------------------------------------------|
F#|-------------------------------------------|
C#|-4-------------2/3\2~------4---7-----------| 
G#|-2---5--4--2-----------6---2---5--5---5-4--|
C#|-----3--2--0-----------4----------3---3-2--|





End:

D#|-------------------------------------------------------------|
A#|-------------------------------------------------------------|
F#|-------------------------------------------------------------|
C#|-------------------------------------------------------------| 
G#|---6---6---6---6---6---6---6---6---6---6---6---6---4---4---4-|
C#|-0-4-0-4-0-4-0-4-0-4-0-4-0-4-0-4-0-4-0-4-0-4-0-4-0-2-0-2-0-2-|
    .   .   .   .   .   .   .   .   .   .   .   .   .   .   .  

D#|-------------------------------------------------------------|
A#|-------------------------------------------------------------|
F#|-------------------------------------------------------------|
C#|----------8--8--6--6--4--4--3--3--4--4-----------------------| 
G#|-2-2---2--6--6--4--4--2--2--1--1--2--2---2-2---2-------------|
C#|-0-0-0-0---------------------------------0-0-0-0-------------|



D#|-----------------------------------------------|
A#|-----------------------------------------------|
F#|------4-4---6-6---8-8-------4-4---6-6---8--8---|
C#|-6-6-------------------6-6---------------------| 
G#|------2-2---4-4---6-6-------2-2---4-4---6-6----|
C#|-4-4-------------------4-4---------------------|
Related for Iron Will tab