Song name
# A B C D E F G H I J K L M N O P Q R S T U V W X Y Z

Born From Pain - Scorched Earth tab

-------------------------------------------------------------------------------
			Scorched Earth - Born From Pain
-------------------------------------------------------------------------------

ARTIST   : Born From Pain
SONG     : Scorched Earth 
ALBUM    : War
TABBED BY: h8urlife
TUNING   : Standard  C# G# C# F# A# D#






Intro:
                               
D#|------------------------------------------------------------------------|
A#|------------------------------------------------------------------------|
F#|------------------------------------------------------------------------|
C#|-----------------------------7-9-10-----------------------------9-7-7-5-| 
G#|------8/7-----10/8------8-7--5-7-8-------8-7-----10/8------8-7--7-5-5-3-|
C#|-0000-6/5-0000-8/6-0000-6/5---------0000-6/5-0000-8/6-0000-6/5----------|
    ....     ....     ....             ....     ....     ....  




Verse:    

D#|---------------------------------------------------------------------------|
A#|---------------------------------------------------------------------------|
F#|---------------------------------------------------------------------------|
C#|------------------------------9-7-9-10-----------------------------9-7-7-5-| 
G#|------8/7-----10/8------8-7---7-5-7-8-------8-7-----10/8------8-7--7-5-5-3-|
C#|-0000-6/5-0000-8/6-0000-6/5------------0000-6/5-0000-8/6-0000-6/5----------|
    ....     ....     ....                ....     ....     .... 


D#|----------------------------------------------------------------------|
A#|----------------------------------------------------------------------|
F#|----------------------------------------------------------------------|
C#|----------------------------------------------------------------------| 
G#|-5--4-4-4-4--4--3-3-3-3--3--2-2-2-2-4-2-2-2-2--5--4-4-4-4--4--3-3-3-3-|
C#|-3--2-2-2-2--2--1-1-1-1--1--0-0-0-0-2-0-0-0-0--3--2-2-2-2--2--1-1-1-1-|




Verse:    

D#|---------------------------------------------------------------------------|
A#|---------------------------------------------------------------------------|
F#|---------------------------------------------------------------------------|
C#|------------------------------9-7-9-10-----------------------------9-7-7-5-| 
G#|------8/7-----10/8------8-7---7-5-7-8-------8-7-----10/8------8-7--7-5-5-3-|
C#|-0000-6/5-0000-8/6-0000-6/5------------0000-6/5-0000-8/6-0000-6/5----------|
    ....     ....     ....                ....     ....     .... 


D#|----------------------------------------------------------------------|
A#|----------------------------------------------------------------------|
F#|----------------------------------------------------------------------|
C#|----------------------------------------------------------------------| 
G#|-5--4-4-4-4--4--3-3-3-3--3--2-2-2-2-4-2-2-2-2--5--4-4-4-4--4--3-3-3-3-|
C#|-3--2-2-2-2--2--1-1-1-1--1--0-0-0-0-2-0-0-0-0--3--2-2-2-2--2--1-1-1-1-|





D#|---------------------------------|
A#|---------------------------------|
F#|---------------------------------|
C#|---------------------------------| 
G#|---------------------------------|
C#|-000-000-000-000-000-000-000-000-|
    ... ... ... ... ... ... ... ... 



Under Solo:

D#|---------------------------------------------------------------------------|
A#|---------------------------------------------------------------------------|
F#|---------------------------------------------------------------------------|
C#|------------------------------9-7-9-10-----------------------------9-7-7-5-| 
G#|------8/7-----10/8------8-7---7-5-7-8-------8-7-----10/8------8-7--7-5-5-3-|
C#|-0000-6/5-0000-8/6-0000-6/5------------0000-6/5-0000-8/6-0000-6/5----------|
    ....     ....     ....                ....     ....     .... 


D#|----------------------------------------------------------------------|
A#|----------------------------------------------------------------------|
F#|----------------------------------------------------------------------|
C#|----------------------------------------------------------------------| 
G#|-5--4-4-4-4--4--3-3-3-3--3--2-2-2-2-4-2-2-2-2--5--4-4-4-4--4--3-3-3-3-|
C#|-3--2-2-2-2--2--1-1-1-1--1--0-0-0-0-2-0-0-0-0--3--2-2-2-2--2--1-1-1-1-|






Breakdown:

D#|-----------------------------------------------------------------|
A#|-----------------------------------------------------------------|
F#|-----------------------------------------------------------------|
C#|-----------------------------------------------------------------| 
G#|-----------------------------------------------------------------|
C#|-000-000-000-000-000-000-000-000-000-000-000-000-000-000-000-000-|
    ... ... ... ... ... ... ... ... ... ... ... ... ... ... ... ...



D#|-------------------------------------------------------------------------------|
A#|-------------------------------------------------------------------------------|
F#|-------------------------------------------------------------------------------|
C#|-99999999999-7777-5555-7777-5555------99999999999-7777-9999-10101010-9999-5555-| 
G#|---------------------------------5555------------------------------------------|
C#|-------------------------------------------------------------------------------|


D#|-------------------------------------------------------------------------------|
A#|-------------------------------------------------------------------------------|
F#|-------------------------------------------------------------------------------|
C#|-99999999999-7777-5555-7777-5555------99999999999-7777-5555-4444-5555-4444-----| 
G#|---------------------------------5555------------------------------------------|
C#|-------------------------------------------------------------------------------|



End:

D#|---------------|
A#|---------------|
F#|-9~------------|
C#|-9~------------| 
G#|-7~------------|
C#|---------------|
   
    
Tap to rate this tab
# A B C D E F G H I J K L M N O P Q R S T U V W X Y Z