Song name
# A B C D E F G H I J K L M N O P Q R S T U V W X Y Z

Born From Pain - Final Nail tab

-------------------------------------------------------------------------------
			  Final Nail - Born From Pain
-------------------------------------------------------------------------------

ARTIST   : Born From Pain
SONG     : Final Nail
ALBUM    : Reclaiming The Crown
TABBED BY: h8urlife
TUNING   : Standard  C# G# C# F# A# D# 






Intro:

D#|--------------------------|----------------------------|
A#|--------------------------|----------------------------|
F#|--------------------------|----------------------------|
C#|--------------------------|----------------------------|
G#|-----7-6-2-3-6-3-2--------|-----7-6-2-------------3h4--|
C#|-0-0-5-4-0-1-4-1-0--------|-0-0-5-4-0-111-444-111------| 
    . .                        . .       ... ... ...


Verse1:

D#|-------------------------------------------------------------|
A#|-------------------------------------------------------------|
F#|-------------------------------------------------------------|
C#|---------------------------------------------------9-8-------| 
G#|-2-----5-6---2---2-----3-5-3-2-2-----5-6---2---2---7-6-6-7h8-|
C#|-0-0-0-3-4-0-0-0-0-0-0-1-3-1-0-0-0-0-3-4-0-0-0-0-0-----------|
      . .     .   .   . .           . .     .   .   .     . 


Verse2:

D#|-------------------------|
A#|-------------------------|
F#|----6--5-----6--3--------|
C#|----6--5-----6--3--------| 
G#|-2--4--3--5--4--1--------|
C#|-0--4--3--3--4--1--------|
       


Breakdown:

D#|------------------------------------------|
A#|------------------------------------------|
F#|------------------------------------------|
C#|------------------------------------------| 
G#|-2-2-2--5-3-2--2-3-2--2-3-2------3-----6--|
C#|-0-0-0--3-1-0--0-1-0--0-1-0--0-0-1-0-0-4--|
    . . .  . . .  . . .  . . .  . .   . .    


Outro: 

D#|--------------------------|----------------------------|
A#|--------------------------|----------------------------|
F#|--------------------------|----------------------------|
C#|--------------------------|----------------------------|
G#|-----7-6-2-3-6-3-2--------|-----7-6-2-------------3h4--|
C#|-0-0-5-4-0-1-4-1-0--------|-0-0-5-4-0-111-444-111------| 
    . .                        . .       ... ... ...




BFP rulez!!!
Tap to rate this tab
# A B C D E F G H I J K L M N O P Q R S T U V W X Y Z