Song name
# A B C D E F G H I J K L M N O P Q R S T U V W X Y Z

Born From Pain - Here Lies Civilization tab

-------------------------------------------------------------------------------
			  Here Lies Civilization - Born From Pain
-------------------------------------------------------------------------------

ARTIST: Born From Pain
SONG: Here Lies Civilization
ALBUM: Sands of time
TABBED BY: h8urlife
TUNING: Standard  C# G# C# F# A# D# (no drop) 





Intro and Verse:

|---------------------------------------------------------------|	
|---------------------------------------------------------------|	
|---------------------------------------------------------------|	
|--------3-5-6------------------------8-7-----------------------|	
|-3-5-6--1-3-4-3-2--------3-2---------6-5-------3-2-------------|	
|-1-3-4--------1-0-000000-1-0-0000000-----00000-1-0-0000000-----|	
                   ......     .......     .....     ....... 



Verse2:

|----------------------------------------------------------|	
|----------------------------------------------------------|	
|-------------------------3-5-6----------------------------|	
|-------------------------3-5-6----------------8-7-5-6--6--|	
|-3-2-------------3-2-----1-3-4-3-2------------6-5-3-4--4--|	
|-1-0-0-0-0-0-0-0-1-0-0-0-1-3-4-1-0-0-0-0-0-0--------------|
      . . . . . .     . .           . . . . . 



Bridge:

|----------------------------------------------------------|	
|----------------------------------------------------------|	
|-----------5--6-------------------------------------------|	
|-----------5--6-------------------------------------------|	
|-2------3--3--4-------------------------------------------|	
|-0--0-0-1--3--4-------------------------------------------|
     . .           



Verse:

|---------------------------------------------------------------|	
|---------------------------------------------------------------|	
|---------------------------------------------------------------|	
|--------3-5-6------------------------8-7-----------------------|	
|-3-5-6--1-3-4-3-2--------3-2---------6-5-------3-2-------------|	
|-1-3-4--------1-0-000000-1-0-0000000-----00000-1-0-0000000-----|	
                   ......     .......     .....     ....... 



Verse2:

|----------------------------------------------------------|	
|----------------------------------------------------------|	
|-------------------------3-5-6----------------------------|	
|-------------------------3-5-6----------------8-7-5-6--6--|	
|-3-2-------------3-2-----1-3-4-3-2------------6-5-3-4--4--|	
|-1-0-0-0-0-0-0-0-1-0-0-0-1-3-4-1-0-0-0-0-0-0--------------|
      . . . . . .     . .           . . . . . 


Bridge:

|----------------------------------------------------------|	
|----------------------------------------------------------|	
|-----------5-3-6-5----------------------------------------|	
|-----------5-3-6-5----------------------------------------|	
|-2------3--3-1-4-3----------------------------------------|	
|-0--0-0-1--3-1-4-3----------------------------------------|
     . .



Outro: 

|----------------------------------------------------------|
|----------------------------------------------------------|	
|----3--6---6--4---4--7--5---------------------------------|	
|----3--6---6--4---4--7--5---------------------------------|	
|-2--1--4---4--2---2--5--3---------------------------------|	
|-0--1--4---4--2---2--5--3---------------------------------|




Solo:
                         (3x)
|-------------------------------15-14-12-------------------|
|-15-14-12--15-14-12--15-14-12-----------15-14-12----------|	
|-------------------------------------------------15-------|	
|----------------------------------------------------------|	
|----------------------------------------------------------|	
|----------------------------------------------------------|
                         (1x)
|--------------------------------------------------|
|--------------------------------------------------|	
|-16--15--18-19---17--16~--------------------------|	
|--------------------------------------------------|	
|--------------------------------------------------|	
|--------------------------------------------------|





BFP rulez!!! 
Tap to rate this tab
 
# A B C D E F G H I J K L M N O P Q R S T U V W X Y Z