Song name
# A B C D E F G H I J K L M N O P Q R S T U V W X Y Z

Born From Pain - Fear This World tab

-------------------------------------------------------------------------------
		    Fear This World - Born From Pain
-------------------------------------------------------------------------------

ARTIST   : Born From Pain
SONG     : Fear This World
ALBUM    : In Love With The End
TABBED BY: h8urlife
C-TUNING : C-F-Bb-Eb-G-C







Intro and Verse:

C#|-----------------------------------------------------------------|
G#|-----------------------------------------------------------------|
E#|-----------------------------------------------------------------|
B#|-----------------------------------------------------------------| 
F#|-3---2-----------3---2---3-5-5-3-3---2-----------3---2---3-6-6-3-|
C#|-1-0-0-0-0-0-000-1-0-0-0-1-3-3-1-1-0-0-0-0-0-000-1-0-0-0-1-4-4-1-|
      .   . . . ...   .   .           .   . . . ...   .   .       





Chorus:       

C#|------------------------------------------------------|
G#|------------------------------------------------------|
E#|------------------------------------------------------|
B#|--------------6-5-5--/9-9---------------6/5-5--/9-9---| 
F#|----------2~--4/3-3--/7-7------------2~-4/3-3--/7-7---|
C#|-11111111-0~----------------11111111-0~---------------|
    ........                   ........ 






Verse:

C#|-----------------------------------------------------------------|
G#|-----------------------------------------------------------------|
E#|-----------------------------------------------------------------|
B#|-----------------------------------------------------------------| 
F#|-3---2-----------3---2---3-5-5-3-3---2-----------3---2---3-6-6-3-|
C#|-1-0-0-0-0-0-000-1-0-0-0-1-3-3-1-1-0-0-0-0-0-000-1-0-0-0-1-4-4-1-|
      .   . . . ...   .   .           .   . . . ...   .   . 





Chorus:       

C#|------------------------------------------------------|
G#|------------------------------------------------------|
E#|------------------------------------------------------|
B#|--------------6-5-5--/9-9---------------6/5-5--/9-9---| 
F#|----------2~--4/3-3--/7-7------------2~-4/3-3--/7-7---|
C#|-11111111-0~----------------11111111-0~---------------|
    ........                   ........ 






Breakdown:

C#|-----------------------------------------------------------|
G#|-----------------------------------------------------------|
E#|-----------------------------------------------------------|
B#|-----------------------------------------------------------| 
F#|-2~-----3-2~-------3-5---3-6--2~-----3-2~-------3-5---3-6--|
C#|-0~-----1-0~-----0-1-3-0-1-4--0~-----1-0~-----0-1-3-0-1-4--|
                    .     .                      .     .   



C#|---------------------------------------------------|
G#|---------------------------------------------------|
E#|---------------------------------------------------|
B#|---------------------------------------------------| 
F#|----------------------------------------3-5---3-6--|
C#|-000-000---000-000-000---000-000--000-0-1-3-0-1-4--|
    ... ...   ... ... ...   ... ...  ... .     .                          


Guitar2:

C#|--------------------------------------------------------------|
G#|--------------------------------------------------------------|
E#|--------------------------------------------------------------|
B#|---------7/9------------10/9-7/9---------7/9------------------| 
F#|---------5/7-------------8/7-5/7---------5/7-------3-5---3-6--|
C#|-000-000-----000-000-000---------000-000-----000-0-1-3-0-1-4--|
    ... ...     ... ... ...         ... ...     ... .     .                          





Chorus:       

C#|------------------------------------------------------|
G#|------------------------------------------------------|
E#|------------------------------------------------------|
B#|--------------6-5-5--/9-9---------------6/5-5--/9-9---| 
F#|----------2~--4/3-3--/7-7------------2~-4/3-3--/7-7---|
C#|-11111111-0~----------------11111111-0~---------------|
    ........                   ........ 





Outro:

C#|-----------------------------------------------------------------|
G#|-----------------------------------------------------------------|
E#|-----------------------------------------------------------------|
B#|-----------------------------------------------------------------| 
F#|-3---2-----------3---2---3-5-5-3-3---2-----------3---2---3-6-6-3-|
C#|-1-0-0-0-0-0-000-1-0-0-0-1-3-3-1-1-0-0-0-0-0-000-1-0-0-0-1-4-4-1-|
      .   . . . ...   .   .           .   . . . ...   .   . 






Born From Pain rulez!!!

www.myspace.com/bornfrompain

www.bornfrompain.com
Tap to rate this tab
# A B C D E F G H I J K L M N O P Q R S T U V W X Y Z