Song name
# A B C D E F G H I J K L M N O P Q R S T U V W X Y Z

Born From Pain - Raging Heart tab

-------------------------------------------------------------------------------
		    Raging Heart - Born From Pain
-------------------------------------------------------------------------------

ARTIST   : Born From Pain
SONG     : Raging Heart
ALBUM    : In Love With The End
TABBED BY: h8urlife
C-TUNING : C-F-Bb-Eb-G-C





Intro:

C#|--------------------------|
G#|--------------------------|
E#|--------------------------|
B#|--------------------------| 
F#|---6/5---8/7---5--3-5-5---|
C#|-0-4/3-0-6/5-0-3--1-3-3---|
    .     .     .




Verse:

C#|----------------------------------|---------------------------|
G#|----------------------------------|---------------------------|
E#|----------------------------------|---------------------------|
B#|----------------------------------|---------------------------|
F#|----6/5----8/7----4---------------|----6/5----8/7----5--3-5-5-|
C#|-00-4/3-00-6/5-00-2--0000001111---|-00-4/3-00-6/5-00-3--1-3-3-|
    ..     ..     ..    ..........     ..     ..     ..   





Chorus:

C#|------------------------------------------------------------|
G#|------------------------------------------------------------|
E#|------------------------------------------------------------|
B#|-3--3-----7---3--3-----7---3--3-----7--------------------6--| 
F#|-1--1-----5---1--1-----5---1--1-----5---3--3-----5-------4--|
C#|-1--1-0-0-5~--1--1-0-0-5~--1--1-0-0-5~--1--1-0-0-3~----0----|
         . .          . .          . .          . .       .                       




Verse:

C#|----------------------------------|---------------------------|
G#|----------------------------------|---------------------------|
E#|----------------------------------|---------------------------|
B#|----------------------------------|---------------------------|
F#|----6/5----8/7----4---------------|----6/5----8/7----5--3-5-5-|
C#|-00-4/3-00-6/5-00-2--0000001111---|-00-4/3-00-6/5-00-3--1-3-3-|
    ..     ..     ..    ..........     ..     ..     ..  




Chorus:

C#|------------------------------------------------------------|
G#|------------------------------------------------------------|
E#|------------------------------------------------------------|
B#|-3--3-----7---3--3-----7---3--3-----7--------------------6--| 
F#|-1--1-----5---1--1-----5---1--1-----5---3--3-----5-------4--|
C#|-1--1-0-0-5~--1--1-0-0-5~--1--1-0-0-5~--1--1-0-0-3~----0----|
         . .          . .          . .          . .       .




Breakdown:

C#|----------------------------------------|
G#|----------------------------------------|
E#|----------------------------------------|
B#|----------------------------------------| 
F#|------2------2----2------2--------------|
C#|-0000-0-0000-0-00-0-0000-0-0000-0-0000--|
    ....   ....   ..   ....   .... . ....        





Chorus:

C#|------------------------------------------------------------|
G#|------------------------------------------------------------|
E#|------------------------------------------------------------|
B#|-3--3-----7---3--3-----7---3--3-----7--------------------6--| 
F#|-1--1-----5---1--1-----5---1--1-----5---3--3-----5-------4--|
C#|-1--1-0-0-5~--1--1-0-0-5~--1--1-0-0-5~--1--1-0-0-3~----0----|
         . .          . .          . .          . .       .




Breakdown:

C#|----------------------------------------|
G#|----------------------------------------|
E#|----------------------------------------|
B#|----------------------------------------| 
F#|------2------2----2------2--------------|
C#|-0000-0-0000-0-00-0-0000-0-0000-0-0000--|
    ....   ....   ..   ....   .... . .... 





Under Solo:

C#|----------------------------------------|
G#|----------------------------------------|
E#|----------------------------------------|
B#|----------------------------------------| 
F#|------2------2----2------2--------------|
C#|-0000-0-0000-0-00-0-0000-0-0000-0-0000--|
    ....   ....   ..   ....   .... . .... 





Born From Pain rulez!!!

www.myspace.com/bornfrompain

www.bornfrompain.com
Tap to rate this tab
# A B C D E F G H I J K L M N O P Q R S T U V W X Y Z